  0
SECTION
  2
HEADER
  9
$ACADVER
  1
AC1015
  9
$ACADMAINTVER
 70
     6
  9
$DWGCODEPAGE
  3
ANSI_1254
  9
$INSBASE
 10
0.0
 20
0.0
 30
0.0
  9
$EXTMIN
 10
0.0
 20
0.0
 30
0.0
  9
$EXTMAX
 10
279.4
 20
215.9
 30
0.0
  9
$LIMMIN
 10
0.0
 20
0.0
  9
$LIMMAX
 10
279.4
 20
215.9
  9
$ORTHOMODE
 70
     0
  9
$REGENMODE
 70
     1
  9
$FILLMODE
 70
     1
  9
$QTEXTMODE
 70
     0
  9
$MIRRTEXT
 70
     1
  9
$LTSCALE
 40
1.0
  9
$ATTMODE
 70
     1
  9
$TEXTSIZE
 40
3.5
  9
$TRACEWID
 40
1.0
  9
$TEXTSTYLE
  7
Standard
  9
$CLAYER
  8
0
  9
$CELTYPE
  6
ByLayer
  9
$CECOLOR
 62
   256
  9
$CELTSCALE
 40
1.0
  9
$DISPSILH
 70
     0
  9
$DIMSCALE
 40
1.0
  9
$DIMASZ
 40
3.5
  9
$DIMEXO
 40
1.0
  9
$DIMDLI
 40
3.75
  9
$DIMRND
 40
0.0
  9
$DIMDLE
 40
0.0
  9
$DIMEXE
 40
1.0
  9
$DIMTP
 40
0.0
  9
$DIMTM
 40
0.0
  9
$DIMTXT
 40
3.5
  9
$DIMCEN
 40
2.5
  9
$DIMTSZ
 40
0.0
  9
$DIMTOL
 70
     0
  9
$DIMLIM
 70
     0
  9
$DIMTIH
 70
     1
  9
$DIMTOH
 70
     1
  9
$DIMSE1
 70
     0
  9
$DIMSE2
 70
     0
  9
$DIMTAD
 70
     1
  9
$DIMZIN
 70
     0
  9
$DIMBLK
  1

  9
$DIMASO
 70
     1
  9
$DIMSHO
 70
     1
  9
$DIMPOST
  1

  9
$DIMAPOST
  1

  9
$DIMALT
 70
     0
  9
$DIMALTD
 70
     3
  9
$DIMALTF
 40
0.0393700787
  9
$DIMLFAC
 40
1.0
  9
$DIMTOFL
 70
     1
  9
$DIMTVP
 40
0.0
  9
$DIMTIX
 70
     0
  9
$DIMSOXD
 70
     0
  9
$DIMSAH
 70
     0
  9
$DIMBLK1
  1

  9
$DIMBLK2
  1

  9
$DIMSTYLE
  2
ISO-25
  9
$DIMCLRD
 70
     0
  9
$DIMCLRE
 70
     0
  9
$DIMCLRT
 70
     0
  9
$DIMTFAC
 40
1.0
  9
$DIMGAP
 40
1.524
  9
$DIMJUST
 70
     0
  9
$DIMSD1
 70
     0
  9
$DIMSD2
 70
     0
  9
$DIMTOLJ
 70
     0
  9
$DIMTZIN
 70
     0
  9
$DIMALTZ
 70
     0
  9
$DIMALTTZ
 70
     0
  9
$DIMUPT
 70
     0
  9
$DIMDEC
 70
     2
  9
$DIMTDEC
 70
     2
  9
$DIMALTU
 70
     2
  9
$DIMALTTD
 70
     3
  9
$DIMTXSTY
  7
Standard
  9
$DIMAUNIT
 70
     0
  9
$DIMADEC
 70
     2
  9
$DIMALTRND
 40
0.0
  9
$DIMAZIN
 70
     0
  9
$DIMDSEP
 70
    44
  9
$DIMATFIT
 70
     3
  9
$DIMFRAC
 70
     0
  9
$DIMLDRBLK
  1

  9
$DIMLUNIT
 70
     2
  9
$DIMLWD
 70
    -2
  9
$DIMLWE
 70
    -2
  9
$DIMTMOVE
 70
     0
  9
$LUNITS
 70
     2
  9
$LUPREC
 70
     2
  9
$SKETCHINC
 40
1.0
  9
$FILLETRAD
 40
10.0
  9
$AUNITS
 70
     0
  9
$AUPREC
 70
     2
  9
$MENU
  1
.
  9
$ELEVATION
 40
0.0
  9
$PELEVATION
 40
0.0
  9
$THICKNESS
 40
0.0
  9
$LIMCHECK
 70
     0
  9
$CHAMFERA
 40
0.0
  9
$CHAMFERB
 40
0.0
  9
$CHAMFERC
 40
0.0
  9
$CHAMFERD
 40
0.0
  9
$SKPOLY
 70
     0
  9
$TDCREATE
 40
2459935.699736644
  9
$TDUCREATE
 40
2459935.574736644
  9
$TDUPDATE
 40
2459935.699736782
  9
$TDUUPDATE
 40
2459935.574736782
  9
$TDINDWG
 40
0.0000000116
  9
$TDUSRTIMER
 40
0.0000000116
  9
$USRTIMER
 70
     1
  9
$ANGBASE
 50
0.0
  9
$ANGDIR
 70
     0
  9
$PDMODE
 70
     0
  9
$PDSIZE
 40
-1.0
  9
$PLINEWID
 40
0.0
  9
$SPLFRAME
 70
     0
  9
$SPLINETYPE
 70
     6
  9
$SPLINESEGS
 70
     8
  9
$HANDSEED
  5
E2
  9
$SURFTAB1
 70
     6
  9
$SURFTAB2
 70
     6
  9
$SURFTYPE
 70
     6
  9
$SURFU
 70
     6
  9
$SURFV
 70
     6
  9
$UCSBASE
  2

  9
$UCSNAME
  2

  9
$UCSORG
 10
0.0
 20
0.0
 30
0.0
  9
$UCSXDIR
 10
1.0
 20
0.0
 30
0.0
  9
$UCSYDIR
 10
0.0
 20
1.0
 30
0.0
  9
$UCSORTHOREF
  2

  9
$UCSORTHOVIEW
 70
     0
  9
$UCSORGTOP
 10
0.0
 20
0.0
 30
0.0
  9
$UCSORGBOTTOM
 10
0.0
 20
0.0
 30
0.0
  9
$UCSORGLEFT
 10
0.0
 20
0.0
 30
0.0
  9
$UCSORGRIGHT
 10
0.0
 20
0.0
 30
0.0
  9
$UCSORGFRONT
 10
0.0
 20
0.0
 30
0.0
  9
$UCSORGBACK
 10
0.0
 20
0.0
 30
0.0
  9
$PUCSBASE
  2

  9
$PUCSNAME
  2

  9
$PUCSORG
 10
0.0
 20
0.0
 30
0.0
  9
$PUCSXDIR
 10
1.0
 20
0.0
 30
0.0
  9
$PUCSYDIR
 10
0.0
 20
1.0
 30
0.0
  9
$PUCSORTHOREF
  2

  9
$PUCSORTHOVIEW
 70
     0
  9
$PUCSORGTOP
 10
0.0
 20
0.0
 30
0.0
  9
$PUCSORGBOTTOM
 10
0.0
 20
0.0
 30
0.0
  9
$PUCSORGLEFT
 10
0.0
 20
0.0
 30
0.0
  9
$PUCSORGRIGHT
 10
0.0
 20
0.0
 30
0.0
  9
$PUCSORGFRONT
 10
0.0
 20
0.0
 30
0.0
  9
$PUCSORGBACK
 10
0.0
 20
0.0
 30
0.0
  9
$USERI1
 70
     0
  9
$USERI2
 70
     0
  9
$USERI3
 70
     0
  9
$USERI4
 70
     0
  9
$USERI5
 70
     0
  9
$USERR1
 40
0.0
  9
$USERR2
 40
0.0
  9
$USERR3
 40
0.0
  9
$USERR4
 40
0.0
  9
$USERR5
 40
0.0
  9
$WORLDVIEW
 70
     1
  9
$SHADEDGE
 70
     3
  9
$SHADEDIF
 70
    70
  9
$TILEMODE
 70
     1
  9
$MAXACTVP
 70
    64
  9
$PINSBASE
 10
0.0
 20
0.0
 30
0.0
  9
$PLIMCHECK
 70
     0
  9
$PEXTMIN
 10
1.0000000000E+20
 20
1.0000000000E+20
 30
1.0000000000E+20
  9
$PEXTMAX
 10
-1.0000000000E+20
 20
-1.0000000000E+20
 30
-1.0000000000E+20
  9
$PLIMMIN
 10
0.0
 20
0.0
  9
$PLIMMAX
 10
420.0
 20
297.0
  9
$UNITMODE
 70
     0
  9
$VISRETAIN
 70
     1
  9
$PLINEGEN
 70
     0
  9
$PSLTSCALE
 70
     1
  9
$TREEDEPTH
 70
  3020
  9
$CMLSTYLE
  2
Standard
  9
$CMLJUST
 70
     0
  9
$CMLSCALE
 40
20.0
  9
$PROXYGRAPHICS
 70
     1
  9
$MEASUREMENT
 70
     1
  9
$CELWEIGHT
370
    -1
  9
$ENDCAPS
280
     0
  9
$JOINSTYLE
280
     0
  9
$LWDISPLAY
290
     1
  9
$INSUNITS
 70
     4
  9
$HYPERLINKBASE
  1

  9
$STYLESHEET
  1

  9
$XEDIT
290
     1
  9
$CEPSNTYPE
380
     0
  9
$PSTYLEMODE
290
     1
  9
$FINGERPRINTGUID
  2
{c8c37b9b-1c28-48a8-aa13-0d58bd1ec8f5}
  9
$VERSIONGUID
  2
{FAEB1C32-E019-11D5-929B-00C0DF256EC4}
  9
$EXTNAMES
290
     1
  9
$PSVPSCALE
 40
0.0
  9
$OLESTARTUP
290
     0
  0
ENDSEC
  0
SECTION
  2
CLASSES
  0
CLASS
  1
ACDBDICTIONARYWDFLT
  2
AcDbDictionaryWithDefault
  3
ObjectDBX Classes
 90
        0
280
     0
281
     0
  0
CLASS
  1
VISUALSTYLE
  2
AcDbVisualStyle
  3
ObjectDBX Classes
 90
     4095
280
     0
281
     0
  0
CLASS
  1
MATERIAL
  2
AcDbMaterial
  3
ObjectDBX Classes
 90
     1153
280
     0
281
     0
  0
CLASS
  1
SCALE
  2
AcDbScale
  3
ObjectDBX Classes
 90
     1153
280
     0
281
     0
  0
CLASS
  1
TABLESTYLE
  2
AcDbTableStyle
  3
ObjectDBX Classes
 90
     4095
280
     0
281
     0
  0
CLASS
  1
MLEADERSTYLE
  2
AcDbMLeaderStyle
  3
ACDB_MLEADERSTYLE_CLASS
 90
     4095
280
     0
281
     0
  0
CLASS
  1
SUN
  2
AcDbSun
  3
SCENEOE
 90
     1153
280
     0
281
     0
  0
CLASS
  1
ACDBPLACEHOLDER
  2
AcDbPlaceHolder
  3
ObjectDBX Classes
 90
        0
280
     0
281
     0
  0
CLASS
  1
LAYOUT
  2
AcDbLayout
  3
ObjectDBX Classes
 90
        0
280
     0
281
     0
  0
ENDSEC
  0
SECTION
  2
TABLES
  0
TABLE
  2
VPORT
  5
8
330
0
100
AcDbSymbolTable
 70
     1
  0
VPORT
  5
29
330
8
100
AcDbSymbolTableRecord
100
AcDbViewportTableRecord
  2
*Active
 70
     0
 10
0.0
 20
0.0
 11
1.0
 21
1.0
 12
139.7
 22
107.95
 13
0.0
 23
0.0
 14
10.0
 24
10.0
 15
10.0
 25
10.0
 16
0.0
 26
0.0
 36
1.0
 17
0.0
 27
0.0
 37
0.0
 40
215.9
 41
1.2941176471
 42
50.0
 43
0.0
 44
0.0
 50
0.0
 51
0.0
 71
     0
 72
  2000
 73
     1
 74
     3
 75
     0
 76
     0
 77
     0
 78
     0
281
     0
 65
     1
110
0.0
120
0.0
130
0.0
111
1.0
121
0.0
131
0.0
112
0.0
122
1.0
132
0.0
 79
     0
146
0.0
  0
ENDTAB
  0
TABLE
  2
LTYPE
  5
5
330
0
100
AcDbSymbolTable
 70
     6
  0
LTYPE
  5
14
330
5
100
AcDbSymbolTableRecord
100
AcDbLinetypeTableRecord
  2
ByBlock
 70
     0
  3

 72
    65
 73
     0
 40
0.0
  0
LTYPE
  5
15
330
5
100
AcDbSymbolTableRecord
100
AcDbLinetypeTableRecord
  2
ByLayer
 70
     0
  3

 72
    65
 73
     0
 40
0.0
  0
LTYPE
  5
16
330
5
100
AcDbSymbolTableRecord
100
AcDbLinetypeTableRecord
  2
Continuous
 70
     0
  3
Solid line
 72
    65
 73
     0
 40
0.0
  0
LTYPE
  5
6E
330
5
100
AcDbSymbolTableRecord
100
AcDbLinetypeTableRecord
  2
HIDDEN
 70
     0
  3
Hidden __ __ __ __ __ __ __ __ __ __ __ __ __ __
 72
    65
 73
     2
 40
1.905
 49
1.27
 74
     0
 49
-0.635
 74
     0
  0
LTYPE
  5
6F
330
5
100
AcDbSymbolTableRecord
100
AcDbLinetypeTableRecord
  2
PHANTOM
 70
     0
  3
Phantom ______  __  __  ______  __  __  ______
 72
    65
 73
     6
 40
12.7
 49
6.35
 74
     0
 49
-1.27
 74
     0
 49
1.27
 74
     0
 49
-1.27
 74
     0
 49
1.27
 74
     0
 49
-1.27
 74
     0
  0
LTYPE
  5
70
330
5
100
AcDbSymbolTableRecord
100
AcDbLinetypeTableRecord
  2
CENTER
 70
     0
  3
Center ____ _ ____ _ ____ _ ____ _ ____ _ ____
 72
    65
 73
     4
 40
10.16
 49
6.35
 74
     0
 49
-1.27
 74
     0
 49
1.27
 74
     0
 49
-1.27
 74
     0
  0
LTYPE
  5
71
330
5
100
AcDbSymbolTableRecord
100
AcDbLinetypeTableRecord
  2
CENTERX2
 70
     0
  3
Center (2x) ________  __  ________  __  _____
 72
    65
 73
     4
 40
20.32
 49
12.7
 74
     0
 49
-2.54
 74
     0
 49
2.54
 74
     0
 49
-2.54
 74
     0
  0
LTYPE
  5
72
330
5
100
AcDbSymbolTableRecord
100
AcDbLinetypeTableRecord
  2
DOT2
 70
     0
  3
Dot (.5x) ........................................
 72
    65
 73
     2
 40
0.635
 49
0.0
 74
     0
 49
-0.635
 74
     0
  0
ENDTAB
  0
TABLE
  2
LAYER
  5
2
330
0
100
AcDbSymbolTable
 70
    17
  0
LAYER
  5
10
330
2
100
AcDbSymbolTableRecord
100
AcDbLayerTableRecord
  2
0
 70
     0
 62
     7
  6
Continuous
370
    -3
390
F
  0
LAYER
  5
73
330
2
100
AcDbSymbolTableRecord
100
AcDbLayerTableRecord
  2
FORMAT
 70
     0
 62
     7
  6
Continuous
370
    -3
390
F
  0
LAYER
  5
74
330
2
100
AcDbSymbolTableRecord
100
AcDbLayerTableRecord
  2
YARDIMCI_GEOMETRI
 70
     0
 62
    -6
  6
Continuous
290
     0
370
    -3
390
F
  0
LAYER
  5
75
330
2
100
AcDbSymbolTableRecord
100
AcDbLayerTableRecord
  2
SAYFA_CERCEVESI
 70
     0
 62
     7
  6
Continuous
370
    25
390
F
  0
LAYER
  5
76
330
2
100
AcDbSymbolTableRecord
100
AcDbLayerTableRecord
  2
ANTET
 70
     0
 62
     7
  6
Continuous
370
    -3
390
F
  0
LAYER
  5
77
330
2
100
AcDbSymbolTableRecord
100
AcDbLayerTableRecord
  2
OLCU
 70
     0
 62
   150
  6
Continuous
370
    -3
390
F
  0
LAYER
  5
78
330
2
100
AcDbSymbolTableRecord
100
AcDbLayerTableRecord
  2
METIN
 70
     0
 62
    96
  6
Continuous
370
    -3
390
F
  0
LAYER
  5
79
330
2
100
AcDbSymbolTableRecord
100
AcDbLayerTableRecord
  2
BALON
 70
     0
 62
     5
  6
Continuous
370
    -3
390
F
  0
LAYER
  5
7A
330
2
100
AcDbSymbolTableRecord
100
AcDbLayerTableRecord
  2
VURGU
 70
     0
 62
     7
  6
Continuous
370
    -3
390
F
  0
LAYER
  5
7B
330
2
100
AcDbSymbolTableRecord
100
AcDbLayerTableRecord
  2
SILIK
 70
     0
 62
     7
  6
Continuous
370
    -3
390
F
  0
LAYER
  5
7C
330
2
100
AcDbSymbolTableRecord
100
AcDbLayerTableRecord
  2
MODEL
 70
     0
 62
     7
  6
Continuous
370
    -3
390
F
  0
LAYER
  5
7D
330
2
100
AcDbSymbolTableRecord
100
AcDbLayerTableRecord
  2
DETAYLANDıRMA
 70
     0
 62
   190
  6
Continuous
370
    -3
390
F
  0
LAYER
  5
7E
330
2
100
AcDbSymbolTableRecord
100
AcDbLayerTableRecord
  2
TOLERANS
 70
     0
 62
   230
  6
Continuous
370
    -3
390
F
  0
LAYER
  5
7F
330
2
100
AcDbSymbolTableRecord
100
AcDbLayerTableRecord
  2
MERKEZ_CIZGILERI
 70
     0
 62
    30
  6
Continuous
370
    -3
390
F
  0
LAYER
  5
80
330
2
100
AcDbSymbolTableRecord
100
AcDbLayerTableRecord
  2
KESIT-DETAY_CIZGILERI
 70
     0
 62
     7
  6
Continuous
370
    -3
390
F
  0
LAYER
  5
81
330
2
100
AcDbSymbolTableRecord
100
AcDbLayerTableRecord
  2
\U+041E\U+0421\U+0415\U+0412\U+042B\U+0415
 70
     0
 62
     7
  6
Continuous
370
    -3
390
F
  0
LAYER
  5
82
330
2
100
AcDbSymbolTableRecord
100
AcDbLayerTableRecord
  2
\U+0412\U+041E\U+0414\U+042F\U+041D\U+042B\U+0415_\U+0417\U+041D\U+0410\U+041A\U+0418
 70
     0
 62
    11
  6
Continuous
370
    -3
390
F
  0
ENDTAB
  0
TABLE
  2
STYLE
  5
3
330
0
100
AcDbSymbolTable
 70
     1
  0
STYLE
  5
11
330
3
100
AcDbSymbolTableRecord
100
AcDbTextStyleTableRecord
  2
Standard
 70
     0
 40
0.0
 41
1.0
 50
0.0
 71
     0
 42
3.5
  3
txt
  4

  0
ENDTAB
  0
TABLE
  2
VIEW
  5
6
330
0
100
AcDbSymbolTable
 70
     0
  0
ENDTAB
  0
TABLE
  2
UCS
  5
7
330
0
100
AcDbSymbolTable
 70
     0
  0
ENDTAB
  0
TABLE
  2
APPID
  5
9
330
0
100
AcDbSymbolTable
 70
     1
  0
APPID
  5
12
330
9
100
AcDbSymbolTableRecord
100
AcDbRegAppTableRecord
  2
ACAD
 70
     0
  0
ENDTAB
  0
TABLE
  2
DIMSTYLE
  5
A
330
0
100
AcDbSymbolTable
 70
     1
100
AcDbDimStyleTable
  0
DIMSTYLE
105
27
330
A
100
AcDbSymbolTableRecord
100
AcDbDimStyleTableRecord
  2
ISO-25
 70
     0
 41
2.5
 42
0.625
 43
3.75
 44
1.25
 73
     0
 74
     0
 77
     1
 78
     8
140
2.5
141
2.5
143
0.0393700787
147
0.625
171
     3
172
     1
178
     0
271
     2
272
     2
274
     3
278
    44
283
     0
284
     8
340
11
  0
ENDTAB
  0
TABLE
  2
BLOCK_RECORD
  5
1
330
0
100
AcDbSymbolTable
 70
     3
  0
BLOCK_RECORD
  5
1F
330
1
100
AcDbSymbolTableRecord
100
AcDbBlockTableRecord
  2
*Model_Space
340
22
  0
BLOCK_RECORD
  5
1B
330
1
100
AcDbSymbolTableRecord
100
AcDbBlockTableRecord
  2
*Paper_Space
340
1E
  0
BLOCK_RECORD
  5
23
330
1
100
AcDbSymbolTableRecord
100
AcDbBlockTableRecord
  2
*Paper_Space0
340
26
  0
BLOCK_RECORD
  5
A6
330
1
100
AcDbSymbolTableRecord
100
AcDbBlockTableRecord
  2
SW_CENTERMARKSYMBOL_0
340
0
102
{BLKREFS
331
B1
102
}
  0
BLOCK_RECORD
  5
BC
330
1
100
AcDbSymbolTableRecord
100
AcDbBlockTableRecord
  2
SW_CENTERMARKSYMBOL_1
340
0
102
{BLKREFS
331
C7
102
}
  0
ENDTAB
  0
ENDSEC
  0
SECTION
  2
BLOCKS
  0
BLOCK
  5
20
330
1F
100
AcDbEntity
  8
0
100
AcDbBlockBegin
  2
*Model_Space
 70
     0
 10
0.0
 20
0.0
 30
0.0
  3
*Model_Space
  1

  0
ENDBLK
  5
21
330
1F
100
AcDbEntity
  8
0
100
AcDbBlockEnd
  0
BLOCK
  5
1C
330
1B
100
AcDbEntity
 67
     1
  8
0
100
AcDbBlockBegin
  2
*Paper_Space
 70
     0
 10
0.0
 20
0.0
 30
0.0
  3
*Paper_Space
  1

  0
ENDBLK
  5
1D
330
1B
100
AcDbEntity
 67
     1
  8
0
100
AcDbBlockEnd
  0
BLOCK
  5
24
330
23
100
AcDbEntity
  8
0
100
AcDbBlockBegin
  2
*Paper_Space0
 70
     0
 10
0.0
 20
0.0
 30
0.0
  3
*Paper_Space0
  1

  0
ENDBLK
  5
25
330
23
100
AcDbEntity
  8
0
100
AcDbBlockEnd
  0
BLOCK
  5
A7
330
A6
100
AcDbEntity
  8
0
100
AcDbBlockBegin
  2
SW_CENTERMARKSYMBOL_0
 70
     0
 10
0.0
 20
0.0
 30
0.0
  3
SW_CENTERMARKSYMBOL_0
  1

  0
LINE
  5
A9
330
A6
100
AcDbEntity
  8
FORMAT
 62
     0
100
AcDbLine
 10
0.0
 20
0.0
 30
0.0
 11
0.0
 21
2.5
 31
0.0
  0
LINE
  5
AA
330
A6
100
AcDbEntity
  8
FORMAT
 62
     0
100
AcDbLine
 10
0.0
 20
0.0
 30
0.0
 11
-2.5
 21
0.0
 31
0.0
  0
LINE
  5
AB
330
A6
100
AcDbEntity
  8
FORMAT
 62
     0
100
AcDbLine
 10
0.0
 20
0.0
 30
0.0
 11
0.0
 21
-2.5
 31
0.0
  0
LINE
  5
AC
330
A6
100
AcDbEntity
  8
FORMAT
 62
     0
100
AcDbLine
 10
0.0
 20
0.0
 30
0.0
 11
2.5
 21
0.0
 31
0.0
  0
LINE
  5
AD
330
A6
100
AcDbEntity
  8
FORMAT
 62
     0
100
AcDbLine
 10
0.0
 20
5.0
 30
0.0
 11
0.0
 21
227.5
 31
0.0
  0
LINE
  5
AE
330
A6
100
AcDbEntity
  8
FORMAT
 62
     0
100
AcDbLine
 10
-5.0
 20
0.0
 30
0.0
 11
-227.5
 21
0.0
 31
0.0
  0
LINE
  5
AF
330
A6
100
AcDbEntity
  8
FORMAT
 62
     0
100
AcDbLine
 10
0.0
 20
-5.0
 30
0.0
 11
0.0
 21
-227.5
 31
0.0
  0
LINE
  5
B0
330
A6
100
AcDbEntity
  8
FORMAT
 62
     0
100
AcDbLine
 10
5.0
 20
0.0
 30
0.0
 11
227.5
 21
0.0
 31
0.0
  0
ENDBLK
  5
A8
330
A6
100
AcDbEntity
  8
0
100
AcDbBlockEnd
  0
BLOCK
  5
BD
330
BC
100
AcDbEntity
  8
0
100
AcDbBlockBegin
  2
SW_CENTERMARKSYMBOL_1
 70
     0
 10
0.0
 20
0.0
 30
0.0
  3
SW_CENTERMARKSYMBOL_1
  1

  0
LINE
  5
BF
330
BC
100
AcDbEntity
  8
FORMAT
 62
     0
100
AcDbLine
 10
0.0
 20
0.0
 30
0.0
 11
0.0
 21
2.5
 31
0.0
  0
LINE
  5
C0
330
BC
100
AcDbEntity
  8
FORMAT
 62
     0
100
AcDbLine
 10
0.0
 20
0.0
 30
0.0
 11
-2.5
 21
0.0
 31
0.0
  0
LINE
  5
C1
330
BC
100
AcDbEntity
  8
FORMAT
 62
     0
100
AcDbLine
 10
0.0
 20
0.0
 30
0.0
 11
0.0
 21
-2.5
 31
0.0
  0
LINE
  5
C2
330
BC
100
AcDbEntity
  8
FORMAT
 62
     0
100
AcDbLine
 10
0.0
 20
0.0
 30
0.0
 11
2.5
 21
0.0
 31
0.0
  0
LINE
  5
C3
330
BC
100
AcDbEntity
  8
FORMAT
 62
     0
100
AcDbLine
 10
0.0
 20
5.0
 30
0.0
 11
0.0
 21
227.5
 31
0.0
  0
LINE
  5
C4
330
BC
100
AcDbEntity
  8
FORMAT
 62
     0
100
AcDbLine
 10
-5.0
 20
0.0
 30
0.0
 11
-227.5
 21
0.0
 31
0.0
  0
LINE
  5
C5
330
BC
100
AcDbEntity
  8
FORMAT
 62
     0
100
AcDbLine
 10
0.0
 20
-5.0
 30
0.0
 11
0.0
 21
-227.5
 31
0.0
  0
LINE
  5
C6
330
BC
100
AcDbEntity
  8
FORMAT
 62
     0
100
AcDbLine
 10
5.0
 20
0.0
 30
0.0
 11
227.5
 21
0.0
 31
0.0
  0
ENDBLK
  5
BE
330
BC
100
AcDbEntity
  8
0
100
AcDbBlockEnd
  0
ENDSEC
  0
SECTION
  2
ENTITIES
  0
LINE
  5
83
330
1F
100
AcDbEntity
  8
0
  6
Continuous
 62
     7
370
    25
100
AcDbLine
 10
-736.4016573493
 20
472.8899265015
 30
0.0
 11
-736.4016573493
 21
264.7909007345
 31
0.0
  0
LINE
  5
84
330
1F
100
AcDbEntity
  8
0
  6
Continuous
 62
     7
370
    25
100
AcDbLine
 10
-286.4016573493
 20
264.7909007345
 30
0.0
 11
-286.4016573493
 21
472.8899265015
 31
0.0
  0
LINE
  5
85
330
1F
100
AcDbEntity
  8
0
  6
Continuous
 62
     7
370
    25
100
AcDbLine
 10
-736.4016573493
 20
264.7909007345
 30
0.0
 11
-736.4016573493
 21
105.6918749675
 31
0.0
  0
LINE
  5
86
330
1F
100
AcDbEntity
  8
0
  6
Continuous
 62
     7
370
    25
100
AcDbLine
 10
-286.4016573493
 20
105.6918749675
 30
0.0
 11
-286.4016573493
 21
264.7909007345
 31
0.0
  0
LINE
  5
87
330
1F
100
AcDbEntity
  8
0
  6
Continuous
 62
     7
370
    25
100
AcDbLine
 10
-736.4016573493
 20
105.6918749675
 30
0.0
 11
-736.4016573493
 21
-176.1100734985
 31
0.0
  0
LINE
  5
88
330
1F
100
AcDbEntity
  8
0
  6
Continuous
 62
     7
370
    25
100
AcDbLine
 10
-286.4016573493
 20
-176.1100734985
 30
0.0
 11
-286.4016573493
 21
105.6918749675
 31
0.0
  0
LWPOLYLINE
  5
89
330
1F
100
AcDbEntity
  8
0
  6
Continuous
 62
     7
370
    25
100
AcDbPolyline
 90
      160
 70
   128
 43
0.0
 10
-736.4016573493
 20
472.8899265015
 10
-736.2260019538
 20
466.6044641823
 10
-735.6993100325
 20
460.3288158663
 10
-734.8224039523
 20
454.0727802335
 10
-733.5966528979
 20
447.8461253409
 10
-732.0239707341
 20
441.6585733709
 10
-730.1068130174
 20
435.5197854515
 10
-727.8481731619
 20
429.4393465712
 10
-725.2515777658
 20
423.4267506135
 10
-722.3210811045
 20
417.4913855334
 10
-719.0612588006
 20
411.6425186988
 10
-715.4772006797
 20
405.889282421
 10
-711.5745028231
 20
400.2406596954
 10
-707.3592588303
 20
394.705470176
 10
-702.8380503043
 20
389.2923564041
 10
-698.0179365756
 20
384.0097703143
 10
-692.9064436795
 20
378.8659600376
 10
-687.5115526056
 20
373.8689570233
 10
-681.8416868356
 20
369.0265634983
 10
-675.9056991921
 20
364.3463402853
 10
-669.7128580151
 20
359.8355949972
 10
-663.2728326909
 20
355.5013706275
 10
-656.5956785546
 20
351.3504345529
 10
-649.6918211897
 20
347.3892679674
 10
-642.57204015
 20
343.6240557623
 10
-635.2474521285
 20
340.0606768697
 10
-627.7294935998
 20
336.7046950825
 10
-620.0299029637
 20
333.5613503681
 10
-612.160702217
 20
330.635550686
 10
-604.1341781826
 20
327.9318643251
 10
-595.962863325
 20
325.4545127707
 10
-587.6595161822
 20
323.2073641133
 10
-579.2371014452
 20
321.1939270086
 10
-570.7087697148
 20
319.4173451997
 10
-562.0878369686
 20
317.8803926083
 10
-553.3877637698
 20
316.5854690032
 10
-544.6221342498
 20
315.5345962542
 10
-535.8046348987
 20
314.729415174
 10
-526.9490331949
 20
314.1711829576
 10
-518.0691561094
 20
313.8607712181
 10
-509.1788685159
 20
313.7986646267
 10
-500.2920515434
 20
313.9849601555
 10
-491.4225809016
 20
314.4193669261
 10
-482.584305216
 20
315.1012066638
 10
-473.7910244049
 20
316.0294147569
 10
-465.0564681325
 20
317.2025419187
 10
-456.3942743716
 20
318.6187564503
 10
-447.8179681094
 20
320.2758471008
 10
-439.3409402301
 20
322.1712265199
 10
-430.9764266065
 20
324.3019352977
 10
-422.7374874337
 20
326.6646465852
 10
-414.6369868371
 20
329.2556712894
 10
-406.6875727868
 20
332.0709638327
 10
-398.9016573493
 20
335.1061284699
 10
-391.2913973072
 20
338.3564261519
 10
-383.8686751782
 20
341.8167819246
 10
-376.6450806618
 20
345.4817928532
 10
-369.6318925434
 20
349.3457364582
 10
-362.8400610836
 20
353.4025796505
 10
-356.280190921
 20
357.6459881508
 10
-349.9625245143
 20
362.0693363806
 10
-343.8969261495
 20
366.6657178067
 10
-338.0928665385
 20
371.427955725
 10
-332.5594080313
 20
376.3486144665
 10
-327.3051904665
 20
381.4200110066
 10
-322.3384176813
 20
386.6342269616
 10
-317.6668447016
 20
391.9831209522
 10
-313.2977656342
 20
397.4583413155
 10
-309.2380022773
 20
403.0513391448
 10
-305.4938934696
 20
408.7533816379
 10
-302.0712851924
 20
414.5555657324
 10
-298.9755214424
 20
420.4488320065
 10
-296.2114358871
 20
426.4239788245
 10
-293.7833443179
 20
432.471676704
 10
-291.6950379117
 20
438.5824828826
 10
-289.9497773111
 20
444.7468560618
 10
-288.5502875331
 20
450.9551713048
 10
-287.4987537152
 20
457.1977350642
 10
-286.7968177023
 20
463.4648003178
 10
-286.4455754844
 20
469.746581787
 10
-286.4455754844
 20
476.0332712159
 10
-286.7968177023
 20
482.3150526852
 10
-287.4987537152
 20
488.5821179388
 10
-288.5502875332
 20
494.8246816982
 10
-289.9497773111
 20
501.0329969412
 10
-291.6950379117
 20
507.1973701204
 10
-293.7833443179
 20
513.308176299
 10
-296.2114358871
 20
519.3558741785
 10
-298.9755214424
 20
525.3310209965
 10
-302.0712851924
 20
531.2242872706
 10
-305.4938934696
 20
537.0264713651
 10
-309.2380022773
 20
542.7285138582
 10
-313.2977656342
 20
548.3215116875
 10
-317.6668447016
 20
553.7967320508
 10
-322.3384176813
 20
559.1456260414
 10
-327.3051904665
 20
564.3598419964
 10
-332.5594080313
 20
569.4312385365
 10
-338.0928665385
 20
574.351897278
 10
-343.8969261495
 20
579.1141351963
 10
-349.9625245143
 20
583.7105166224
 10
-356.280190921
 20
588.1338648522
 10
-362.8400610836
 20
592.3772733525
 10
-369.6318925434
 20
596.4341165447
 10
-376.6450806618
 20
600.2980601498
 10
-383.8686751782
 20
603.9630710784
 10
-391.2913973072
 20
607.4234268511
 10
-398.9016573493
 20
610.6737245331
 10
-406.6875727868
 20
613.7088891703
 10
-414.6369868371
 20
616.5241817136
 10
-422.7374874337
 20
619.1152064178
 10
-430.9764266065
 20
621.4779177053
 10
-439.3409402301
 20
623.6086264831
 10
-447.8179681094
 20
625.5040059022
 10
-456.3942743716
 20
627.1610965527
 10
-465.0564681325
 20
628.5773110843
 10
-473.7910244049
 20
629.750438246
 10
-482.584305216
 20
630.6786463392
 10
-491.4225809016
 20
631.3604860769
 10
-500.2920515434
 20
631.7948928475
 10
-509.1788685159
 20
631.9811883762
 10
-518.0691561094
 20
631.9190817849
 10
-526.9490331949
 20
631.6086700454
 10
-535.8046348987
 20
631.0504378289
 10
-544.6221342498
 20
630.2452567488
 10
-553.3877637698
 20
629.1943839997
 10
-562.0878369686
 20
627.8994603947
 10
-570.7087697148
 20
626.3625078033
 10
-579.2371014452
 20
624.5859259944
 10
-587.6595161822
 20
622.5724888897
 10
-595.962863325
 20
620.3253402323
 10
-604.1341781826
 20
617.8479886779
 10
-612.160702217
 20
615.144302317
 10
-620.0299029637
 20
612.2185026349
 10
-627.7294935998
 20
609.0751579205
 10
-635.2474521285
 20
605.7191761333
 10
-642.57204015
 20
602.1557972406
 10
-649.6918211897
 20
598.3905850356
 10
-656.5956785546
 20
594.4294184501
 10
-663.2728326909
 20
590.2784823755
 10
-669.7128580151
 20
585.9442580058
 10
-675.9056991921
 20
581.4335127177
 10
-681.8416868356
 20
576.7532895047
 10
-687.5115526056
 20
571.9108959797
 10
-692.9064436795
 20
566.9138929654
 10
-698.0179365756
 20
561.7700826887
 10
-702.8380503043
 20
556.4874965989
 10
-707.3592588303
 20
551.074382827
 10
-711.5745028231
 20
545.5391933075
 10
-715.4772006797
 20
539.890570582
 10
-719.0612588006
 20
534.1373343042
 10
-722.3210811045
 20
528.2884674696
 10
-725.2515777658
 20
522.3531023895
 10
-727.8481731619
 20
516.3405064318
 10
-730.1068130174
 20
510.2600675515
 10
-732.0239707341
 20
504.1212796321
 10
-733.5966528979
 20
497.9337276621
 10
-734.8224039523
 20
491.7070727695
 10
-735.6993100325
 20
485.4510371367
 10
-736.2260019538
 20
479.1753888207
 10
-736.4016573493
 20
472.8899265015
  0
LWPOLYLINE
  5
8A
330
1F
100
AcDbEntity
  8
0
  6
Continuous
 62
     7
370
    25
100
AcDbPolyline
 90
      145
 70
   128
 43
0.0
 10
-695.5016573493
 20
472.8899265015
 10
-695.3264349425
 20
478.5682267438
 10
-694.801101268
 20
484.235718019
 10
-693.9266563282
 20
489.8816119351
 10
-692.7047646788
 20
495.4951612122
 10
-691.1377522601
 20
501.0656801402
 10
-689.2286019691
 20
506.5825649199
 10
-686.980947982
 20
512.0353138473
 10
-684.399068836
 20
517.413547305
 10
-681.4878792846
 20
522.70702752
 10
-678.2529209427
 20
527.9056780517
 10
-674.7003517374
 20
532.9996029735
 10
-670.836934186
 20
537.9791057097
 10
-666.6700225234
 20
542.8347074939
 10
-662.2075487029
 20
547.557165412
 10
-657.4580072969
 20
552.1374899971
 10
-652.4304393275
 20
556.5669623409
 10
-647.134415056
 20
560.8371506911
 10
-641.5800157657
 20
564.9399265015
 10
-635.7778145713
 20
568.8674799051
 10
-629.7388562926
 20
572.6123345808
 10
-623.4746364298
 20
576.1673619848
 10
-616.9970792815
 20
579.5257949205
 10
-610.3185152459
 20
582.6812404199
 10
-603.4516573493
 20
585.6276919131
 10
-596.4095770458
 20
588.3595406622
 10
-589.2056793357
 20
590.871586438
 10
-581.8536772477
 20
593.1590474184
 10
-574.3675657355
 20
595.2175692915
 10
-566.761595038
 20
597.0432335438
 10
-559.0502435526
 20
598.6325649199
 10
-551.2481902753
 20
599.9825380369
 10
-543.3702868578
 20
601.0905831444
 10
-535.431529337
 20
601.9545910156
 10
-527.4470295891
 20
602.5729169622
 10
-519.4319865632
 20
602.9443839659
 10
-511.4016573493
 20
603.0682849179
 10
-503.3713281353
 20
602.9443839659
 10
-495.3562851094
 20
602.5729169622
 10
-487.3717853616
 20
601.9545910156
 10
-479.4330278408
 20
601.0905831444
 10
-471.5551244233
 20
599.9825380369
 10
-463.7530711459
 20
598.6325649199
 10
-456.0417196605
 20
597.0432335438
 10
-448.435748963
 20
595.2175692915
 10
-440.9496374509
 20
593.1590474184
 10
-433.5976353628
 20
590.871586438
 10
-426.3937376527
 20
588.3595406622
 10
-419.3516573493
 20
585.6276919131
 10
-412.4847994526
 20
582.6812404199
 10
-405.806235417
 20
579.5257949205
 10
-399.3286782688
 20
576.1673619848
 10
-393.064458406
 20
572.6123345808
 10
-387.0255001272
 20
568.8674799051
 10
-381.2232989328
 20
564.9399265015
 10
-375.6688996425
 20
560.8371506911
 10
-370.3728753711
 20
556.5669623409
 10
-365.3453074017
 20
552.1374899971
 10
-360.5957659957
 20
547.557165412
 10
-356.1332921751
 20
542.8347074939
 10
-351.9663805126
 20
537.9791057097
 10
-348.1029629612
 20
532.9996029735
 10
-344.5503937558
 20
527.9056780517
 10
-341.3154354139
 20
522.70702752
 10
-338.4042458626
 20
517.413547305
 10
-335.8223667165
 20
512.0353138473
 10
-333.5747127295
 20
506.5825649199
 10
-331.6655624385
 20
501.0656801402
 10
-330.0985500197
 20
495.4951612122
 10
-328.8766583704
 20
489.8816119351
 10
-328.0022134306
 20
484.235718019
 10
-327.4768797561
 20
478.5682267438
 10
-327.3016573493
 20
472.8899265015
 10
-327.4768797561
 20
467.2116262591
 10
-328.0022134306
 20
461.544134984
 10
-328.8766583704
 20
455.8982410679
 10
-330.0985500197
 20
450.2846917908
 10
-331.6655624385
 20
444.7141728627
 10
-333.5747127295
 20
439.1972880831
 10
-335.8223667165
 20
433.7445391557
 10
-338.4042458626
 20
428.366305698
 10
-341.3154354139
 20
423.072825483
 10
-344.5503937558
 20
417.8741749513
 10
-348.1029629612
 20
412.7802500295
 10
-351.9663805126
 20
407.8007472933
 10
-356.1332921751
 20
402.9451455091
 10
-360.5957659957
 20
398.222687591
 10
-365.3453074017
 20
393.6423630059
 10
-370.3728753711
 20
389.2128906621
 10
-375.6688996425
 20
384.9427023119
 10
-381.2232989328
 20
380.8399265015
 10
-387.0255001272
 20
376.9123730979
 10
-393.064458406
 20
373.1675184222
 10
-399.3286782688
 20
369.6124910182
 10
-405.806235417
 20
366.2540580825
 10
-412.4847994526
 20
363.0986125831
 10
-419.3516573493
 20
360.1521610899
 10
-426.3937376527
 20
357.4203123408
 10
-433.5976353628
 20
354.908266565
 10
-440.9496374509
 20
352.6208055846
 10
-448.435748963
 20
350.5622837115
 10
-456.0417196605
 20
348.7366194592
 10
-463.7530711459
 20
347.1472880831
 10
-471.5551244233
 20
345.7973149661
 10
-479.4330278408
 20
344.6892698586
 10
-487.3717853616
 20
343.8252619874
 10
-495.3562851094
 20
343.2069360407
 10
-503.3713281353
 20
342.8354690371
 10
-511.4016573493
 20
342.7115680851
 10
-519.4319865632
 20
342.8354690371
 10
-527.4470295891
 20
343.2069360407
 10
-535.431529337
 20
343.8252619874
 10
-543.3702868578
 20
344.6892698586
 10
-551.2481902753
 20
345.7973149661
 10
-559.0502435527
 20
347.1472880831
 10
-566.761595038
 20
348.7366194592
 10
-574.3675657355
 20
350.5622837115
 10
-581.8536772477
 20
352.6208055846
 10
-589.2056793357
 20
354.908266565
 10
-596.4095770458
 20
357.4203123408
 10
-603.4516573493
 20
360.1521610899
 10
-610.3185152459
 20
363.0986125831
 10
-616.9970792815
 20
366.2540580825
 10
-623.4746364298
 20
369.6124910182
 10
-629.7388562926
 20
373.1675184222
 10
-635.7778145713
 20
376.9123730979
 10
-641.5800157657
 20
380.8399265015
 10
-647.134415056
 20
384.9427023119
 10
-652.4304393275
 20
389.2128906621
 10
-657.4580072969
 20
393.6423630059
 10
-662.2075487029
 20
398.222687591
 10
-666.6700225234
 20
402.9451455091
 10
-670.836934186
 20
407.8007472933
 10
-674.7003517374
 20
412.7802500295
 10
-678.2529209427
 20
417.8741749513
 10
-681.4878792846
 20
423.072825483
 10
-684.399068836
 20
428.366305698
 10
-686.980947982
 20
433.7445391557
 10
-689.2286019691
 20
439.1972880831
 10
-691.1377522601
 20
444.7141728627
 10
-692.7047646788
 20
450.2846917908
 10
-693.9266563282
 20
455.8982410679
 10
-694.801101268
 20
461.544134984
 10
-695.3264349425
 20
467.2116262591
 10
-695.5016573493
 20
472.8899265015
  0
LINE
  5
8B
330
1F
100
AcDbEntity
  8
0
  6
Continuous
 62
     7
370
    25
100
AcDbLine
 10
-736.4016573493
 20
-176.1100734985
 30
0.0
 11
-286.4016573493
 21
-176.1100734985
 31
0.0
  0
LWPOLYLINE
  5
8C
330
1F
100
AcDbEntity
  8
0
  6
Continuous
 62
     1
370
    25
100
AcDbPolyline
 90
       41
 70
   128
 43
0.0
 10
-511.4016573493
 20
105.6918749675
 10
-502.5126712916
 20
105.8160820888
 10
-493.6375643305
 20
106.188509518
 10
-484.790193892
 20
106.8085757538
 10
-475.9843740946
 20
107.6753126364
 10
-467.2338541808
 20
108.7873668591
 10
-458.5522970486
 20
110.1430020812
 10
-449.9532579188
 20
111.7401016392
 10
-441.4501631705
 20
113.5761718518
 10
-433.0562893765
 20
115.6483459133
 10
-424.7847425745
 20
117.9533883698
 10
-416.6484378029
 20
120.4877001713
 10
-408.6600789357
 20
123.2473242906
 10
-400.832138847
 20
126.2279519023
 10
-393.1768399361
 20
129.4249291101
 10
-385.7061350435
 20
132.8332642138
 10
-378.4316887879
 20
136.4476355026
 10
-371.3648593538
 20
140.2623995648
 10
-364.5166807564
 20
144.2716000991
 10
-357.8978456137
 20
148.4689772148
 10
-351.5186884509
 20
152.8479772059
 10
-345.3891695649
 20
157.4017627837
 10
-339.5188594717
 20
162.1232237525
 10
-333.9169239636
 20
167.0049881116
 10
-328.592109798
 20
172.0394335653
 10
-323.5527310401
 20
177.2186994247
 10
-318.8066560816
 20
182.534698881
 10
-314.3612953553
 20
187.9791316322
 10
-310.223589764
 20
193.5434968426
 10
-306.3999998441
 20
199.2191064167
 10
-302.8964956771
 20
204.9970985638
 10
-299.7185475691
 20
210.868451635
 10
-296.8711175087
 20
216.8239982095
 10
-294.3586514199
 20
222.8544394083
 10
-292.1850722203
 20
228.9503594132
 10
-290.3537736959
 20
235.102240169
 10
-288.8676152018
 20
241.3004762439
 10
-287.7289171981
 20
247.5353898282
 10
-286.9394576267
 20
253.7972458444
 10
-286.5004691348
 20
260.0762671477
 10
-286.4016573493
 20
264.7909007345
  0
LWPOLYLINE
  5
8D
330
1F
100
AcDbEntity
  8
0
  6
Continuous
 62
     1
370
    25
100
AcDbPolyline
 90
       41
 70
   128
 43
0.0
 10
-736.4016573493
 20
264.7909007345
 10
-736.3028455638
 20
260.0762671477
 10
-735.8638570719
 20
253.7972458444
 10
-735.0743975004
 20
247.5353898282
 10
-733.9356994968
 20
241.3004762439
 10
-732.4495410027
 20
235.1022401689
 10
-730.6182424782
 20
228.9503594132
 10
-728.4446632787
 20
222.8544394083
 10
-725.9321971899
 20
216.8239982095
 10
-723.0847671295
 20
210.868451635
 10
-719.9068190214
 20
204.9970985638
 10
-716.4033148545
 20
199.2191064167
 10
-712.5797249345
 20
193.5434968426
 10
-708.4420193433
 20
187.9791316322
 10
-703.9966586169
 20
182.534698881
 10
-699.2505836584
 20
177.2186994247
 10
-694.2112049006
 20
172.0394335653
 10
-688.886390735
 20
167.0049881116
 10
-683.2844552269
 20
162.1232237525
 10
-677.4141451337
 20
157.4017627837
 10
-671.2846262476
 20
152.8479772059
 10
-664.9054690849
 20
148.4689772148
 10
-658.2866339421
 20
144.2716000991
 10
-651.4384553447
 20
140.2623995648
 10
-644.3716259106
 20
136.4476355026
 10
-637.0971796551
 20
132.8332642138
 10
-629.6264747624
 20
129.4249291101
 10
-621.9711758515
 20
126.2279519023
 10
-614.1432357629
 20
123.2473242906
 10
-606.1548768957
 20
120.4877001713
 10
-598.018572124
 20
117.9533883698
 10
-589.747025322
 20
115.6483459133
 10
-581.3531515281
 20
113.5761718518
 10
-572.8500567797
 20
111.7401016392
 10
-564.25101765
 20
110.1430020812
 10
-555.5694605178
 20
108.7873668591
 10
-546.8189406039
 20
107.6753126364
 10
-538.0131208066
 20
106.8085757538
 10
-529.165750368
 20
106.188509518
 10
-520.2906434069
 20
105.8160820888
 10
-511.4016573493
 20
105.6918749675
  0
LWPOLYLINE
  5
8E
330
1F
100
AcDbEntity
  8
0
  6
Continuous
 62
     1
370
    25
100
AcDbPolyline
 90
       31
 70
   128
 43
0.0
 10
-622.0371296781
 20
368.840413618
 10
-616.9970792815
 20
371.4267691535
 10
-610.3185152459
 20
374.5822146529
 10
-603.4516573493
 20
377.5286661461
 10
-596.4095770458
 20
380.2605148953
 10
-589.2056793357
 20
382.772560671
 10
-581.8536772477
 20
385.0600216514
 10
-574.3675657355
 20
387.1185435245
 10
-566.761595038
 20
388.9442077769
 10
-559.0502435526
 20
390.5335391529
 10
-551.2481902753
 20
391.8835122699
 10
-543.3702868578
 20
392.9915573774
 10
-535.431529337
 20
393.8555652486
 10
-527.4470295891
 20
394.4738911953
 10
-519.4319865632
 20
394.8453581989
 10
-511.4016573493
 20
394.969259151
 10
-503.3713281353
 20
394.8453581989
 10
-495.3562851094
 20
394.4738911953
 10
-487.3717853616
 20
393.8555652486
 10
-479.4330278408
 20
392.9915573774
 10
-471.5551244233
 20
391.8835122699
 10
-463.7530711459
 20
390.5335391529
 10
-456.0417196605
 20
388.9442077769
 10
-448.435748963
 20
387.1185435245
 10
-440.9496374509
 20
385.0600216514
 10
-433.5976353628
 20
382.772560671
 10
-426.3937376527
 20
380.2605148953
 10
-419.3516573493
 20
377.5286661461
 10
-412.4847994526
 20
374.5822146529
 10
-405.806235417
 20
371.4267691535
 10
-400.7661850205
 20
368.840413618
  0
LINE
  5
8F
330
1F
100
AcDbEntity
  8
0
  6
Continuous
 62
     1
370
    25
100
AcDbLine
 10
-511.4016573493
 20
105.6918749675
 30
0.0
 11
-286.4016573493
 21
105.6918749675
 31
0.0
  0
LINE
  5
90
330
1F
100
AcDbEntity
  8
0
  6
Continuous
 62
     1
370
    25
100
AcDbLine
 10
-736.4016573493
 20
105.6918749675
 30
0.0
 11
-511.4016573493
 21
105.6918749675
 31
0.0
  0
LINE
  5
91
330
1F
100
AcDbEntity
  8
0
  6
Continuous
 62
     7
370
    25
100
AcDbLine
 10
1044.8325349976
 20
239.8526017491
 30
0.0
 11
1044.8325349976
 21
-41.949346717
 31
0.0
  0
LINE
  5
92
330
1F
100
AcDbEntity
  8
0
  6
Continuous
 62
     7
370
    25
100
AcDbLine
 10
1494.8325349976
 20
-41.949346717
 30
0.0
 11
1494.8325349976
 21
239.8526017491
 31
0.0
  0
LINE
  5
93
330
1F
100
AcDbEntity
  8
0
  6
Continuous
 62
     7
370
    25
100
AcDbLine
 10
1494.8325349976
 20
239.8526017491
 30
0.0
 11
1494.8325349976
 21
398.9516275161
 31
0.0
  0
LINE
  5
94
330
1F
100
AcDbEntity
  8
0
  6
Continuous
 62
     7
370
    25
100
AcDbLine
 10
1044.8325349976
 20
398.9516275161
 30
0.0
 11
1044.8325349976
 21
239.8526017491
 31
0.0
  0
LINE
  5
95
330
1F
100
AcDbEntity
  8
0
  6
Continuous
 62
     7
370
    25
100
AcDbLine
 10
1044.8325349976
 20
607.050653283
 30
0.0
 11
1044.8325349976
 21
398.9516275161
 31
0.0
  0
LINE
  5
96
330
1F
100
AcDbEntity
  8
0
  6
Continuous
 62
     7
370
    25
100
AcDbLine
 10
1494.8325349976
 20
398.9516275161
 30
0.0
 11
1494.8325349976
 21
607.050653283
 31
0.0
  0
LINE
  5
97
330
1F
100
AcDbEntity
  8
0
  6
Continuous
 62
     7
370
    25
100
AcDbLine
 10
1044.8325349976
 20
-41.949346717
 30
0.0
 11
1494.8325349976
 21
-41.949346717
 31
0.0
  0
LWPOLYLINE
  5
98
330
1F
100
AcDbEntity
  8
0
  6
Continuous
 62
     7
370
    25
100
AcDbPolyline
 90
       81
 70
   128
 43
0.0
 10
1044.8325349976
 20
607.050653283
 10
1044.8764531327
 20
610.1939979975
 10
1045.2276953506
 20
616.4757794668
 10
1045.9296313635
 20
622.7428447203
 10
1046.9811651815
 20
628.9854084797
 10
1048.3806549594
 20
635.1937237227
 10
1050.12591556
 20
641.358096902
 10
1052.2142219662
 20
647.4689030806
 10
1054.6423135354
 20
653.51660096
 10
1057.4063990907
 20
659.4917477781
 10
1060.5021628407
 20
665.3850140521
 10
1063.9247711179
 20
671.1871981466
 10
1067.6688799256
 20
676.8892406397
 10
1071.7286432825
 20
682.482238469
 10
1076.0977223499
 20
687.9574588323
 10
1080.7692953296
 20
693.306352823
 10
1085.7360681149
 20
698.520568778
 10
1090.9902856796
 20
703.591965318
 10
1096.5237441868
 20
708.5126240595
 10
1102.3278037978
 20
713.2748619779
 10
1108.3934021626
 20
717.871243404
 10
1114.7110685694
 20
722.2945916337
 10
1121.2709387319
 20
726.5380001341
 10
1128.0627701917
 20
730.5948433263
 10
1135.0759583102
 20
734.4587869313
 10
1142.2995528265
 20
738.12379786
 10
1149.7222749555
 20
741.5841536326
 10
1157.3325349976
 20
744.8344513146
 10
1165.1184504351
 20
747.8696159519
 10
1173.0678644854
 20
750.6849084951
 10
1181.168365082
 20
753.2759331993
 10
1189.4073042548
 20
755.6386444869
 10
1197.7718178784
 20
757.7693532646
 10
1206.2488457577
 20
759.6647326838
 10
1214.8251520199
 20
761.3218233343
 10
1223.4873457808
 20
762.7380378658
 10
1232.2219020532
 20
763.9111650276
 10
1241.0151828643
 20
764.8393731207
 10
1249.8534585499
 20
765.5212128585
 10
1258.7229291918
 20
765.955619629
 10
1267.6097461643
 20
766.1419151578
 10
1276.5000337577
 20
766.0798085664
 10
1285.3799108432
 20
765.769396827
 10
1294.235512547
 20
765.2111646105
 10
1303.0530118981
 20
764.4059835304
 10
1311.8186414181
 20
763.3551107813
 10
1320.5187146169
 20
762.0601871763
 10
1329.1396473631
 20
760.5232345848
 10
1337.6679790935
 20
758.746652776
 10
1346.0903938305
 20
756.7332156713
 10
1354.3937409733
 20
754.4860670138
 10
1362.565055831
 20
752.0087154595
 10
1370.5915798653
 20
749.3050290986
 10
1378.460780612
 20
746.3792294165
 10
1386.1603712481
 20
743.235884702
 10
1393.6783297768
 20
739.8799029149
 10
1401.0029177983
 20
736.3165240222
 10
1408.122698838
 20
732.5513118172
 10
1415.0265562029
 20
728.5901452316
 10
1421.7037103392
 20
724.439209157
 10
1428.1437356634
 20
720.1049847873
 10
1434.3365768404
 20
715.5942394993
 10
1440.2725644839
 20
710.9140162863
 10
1445.9424302539
 20
706.0716227613
 10
1451.3373213278
 20
701.0746197469
 10
1456.4488142239
 20
695.9308094703
 10
1461.2689279526
 20
690.6482233804
 10
1465.7901364786
 20
685.2351096085
 10
1470.0053804714
 20
679.6999200891
 10
1473.908078328
 20
674.0512973636
 10
1477.4921364489
 20
668.2980610857
 10
1480.7519587528
 20
662.4491942511
 10
1483.6824554141
 20
656.513829171
 10
1486.2790508102
 20
650.5012332134
 10
1488.5376906657
 20
644.4207943331
 10
1490.4548483824
 20
638.2820064136
 10
1492.0275305462
 20
632.0944544436
 10
1493.2532816006
 20
625.867799551
 10
1494.1301876808
 20
619.6117639182
 10
1494.6568796021
 20
613.3361156023
 10
1494.8325349976
 20
607.050653283
  0
LINE
  5
99
330
1F
100
AcDbEntity
  8
0
  6
Continuous
 62
     1
370
    25
100
AcDbLine
 10
1044.8325349976
 20
239.8526017491
 30
0.0
 11
1494.8325349976
 21
239.8526017491
 31
0.0
  0
LWPOLYLINE
  5
9A
330
1F
100
AcDbEntity
  8
0
  6
Continuous
 62
     1
370
    25
100
AcDbPolyline
 90
       82
 70
   128
 43
0.0
 10
1044.8325349976
 20
398.9516275161
 10
1044.8435147993
 20
400.5233765733
 10
1045.1069764626
 20
406.8073051177
 10
1045.7213204092
 20
413.0789679541
 10
1046.6855874136
 20
419.3285726254
 10
1047.9982718877
 20
425.5463611157
 10
1049.6573242302
 20
431.7226250866
 10
1051.660154028
 20
437.8477210349
 10
1054.0036341
 20
443.9120853504
 10
1056.6841053804
 20
449.9062492482
 10
1059.6973826314
 20
455.8208535528
 10
1063.0387609782
 20
461.6466633117
 10
1066.7030232553
 20
467.3745822145
 10
1070.684448152
 20
472.9956667959
 10
1074.9768191461
 20
478.5011403996
 10
1079.5734342097
 20
483.8824068819
 10
1084.467116274
 20
489.1310640342
 10
1089.6502244355
 20
494.2389167012
 10
1095.114665886
 20
499.1979895775
 10
1100.8519085489
 20
504.0005396594
 10
1106.8529944007
 20
508.6390683351
 10
1113.1085534584
 20
513.1063330926
 10
1119.608818409
 20
517.3953588283
 10
1126.3436398604
 20
521.4994487376
 10
1133.3025021884
 20
525.4121947715
 10
1140.4745399555
 20
529.1274876413
 10
1147.8485548762
 20
532.6395263584
 10
1155.4130333015
 20
535.9428272911
 10
1163.1561641963
 20
539.0322327273
 10
1171.0658575808
 20
541.9029189269
 10
1179.1297634078
 20
544.5504036544
 10
1187.3352908456
 20
546.9705531765
 10
1195.6696279371
 20
549.1595887171
 10
1204.1197616043
 20
551.114092357
 10
1212.6724979665
 20
552.8310123709
 10
1221.3144829414
 20
554.3076679919
 10
1230.032223095
 20
555.5417535976
 10
1238.8121067111
 20
556.5313423098
 10
1247.6404250436
 20
557.2748890031
 10
1256.5033937215
 20
557.7712327178
 10
1265.3871742712
 20
558.0195984719
 10
1274.277895724
 20
558.0195984719
 10
1283.1616762737
 20
557.7712327178
 10
1292.0246449515
 20
557.2748890031
 10
1300.8529632841
 20
556.5313423098
 10
1309.6328469002
 20
555.5417535976
 10
1318.3505870538
 20
554.3076679919
 10
1326.9925720286
 20
552.8310123709
 10
1335.5453083909
 20
551.114092357
 10
1343.9954420581
 20
549.1595887171
 10
1352.3297791496
 20
546.9705531765
 10
1360.5353065874
 20
544.5504036544
 10
1368.5992124144
 20
541.9029189269
 10
1376.5089057989
 20
539.0322327273
 10
1384.2520366937
 20
535.9428272911
 10
1391.8165151189
 20
532.6395263584
 10
1399.1905300396
 20
529.1274876413
 10
1406.3625678068
 20
525.4121947715
 10
1413.3214301348
 20
521.4994487376
 10
1420.0562515862
 20
517.3953588283
 10
1426.5565165368
 20
513.1063330926
 10
1432.8120755944
 20
508.6390683351
 10
1438.8131614463
 20
504.0005396594
 10
1444.5504041091
 20
499.1979895775
 10
1450.0148455596
 20
494.2389167012
 10
1455.1979537211
 20
489.1310640342
 10
1460.0916357855
 20
483.8824068819
 10
1464.6882508491
 20
478.5011403996
 10
1468.9806218431
 20
472.9956667959
 10
1472.9620467399
 20
467.3745822145
 10
1476.626309017
 20
461.6466633117
 10
1479.9676873638
 20
455.8208535528
 10
1482.9809646148
 20
449.9062492482
 10
1485.6614358951
 20
443.9120853504
 10
1488.0049159672
 20
437.8477210349
 10
1490.007745765
 20
431.7226250866
 10
1491.6667981075
 20
425.5463611157
 10
1492.9794825815
 20
419.3285726254
 10
1493.943749586
 20
413.0789679541
 10
1494.5580935325
 20
406.8073051177
 10
1494.8215551959
 20
400.5233765733
 10
1494.8325349976
 20
398.9516275161
  0
LINE
  5
9B
330
1F
100
AcDbEntity
  8
0
  6
Continuous
 62
     7
370
    25
100
AcDbLine
 10
417.6427191102
 20
1260.2241450252
 30
0.0
 11
209.5436933432
 21
1260.2241450252
 31
0.0
  0
LINE
  5
9C
330
1F
100
AcDbEntity
  8
0
  6
Continuous
 62
     7
370
    25
100
AcDbLine
 10
209.5436933432
 20
810.2241450252
 30
0.0
 11
417.6427191102
 21
810.2241450252
 31
0.0
  0
LINE
  5
9D
330
1F
100
AcDbEntity
  8
0
  6
Continuous
 62
     7
370
    25
100
AcDbLine
 10
209.5436933432
 20
1260.2241450252
 30
0.0
 11
143.6427191102
 21
1260.2241450252
 31
0.0
  0
LINE
  5
9E
330
1F
100
AcDbEntity
  8
0
  6
Continuous
 62
     7
370
    25
100
AcDbLine
 10
143.6427191102
 20
810.2241450252
 30
0.0
 11
209.5436933432
 21
810.2241450252
 31
0.0
  0
CIRCLE
  5
9F
330
1F
100
AcDbEntity
  8
0
  6
Continuous
 62
     7
370
    25
100
AcDbCircle
 10
143.6427191102
 20
1035.2241450252
 30
0.0
 40
184.0999999999999
  0
CIRCLE
  5
A0
330
1F
100
AcDbEntity
  8
0
  6
Continuous
 62
     7
370
    25
100
AcDbCircle
 10
143.6427191102
 20
1035.2241450252
 30
0.0
 40
225.0000000000002
  0
LWPOLYLINE
  5
A1
330
1F
100
AcDbEntity
  8
0
  6
Continuous
 62
     7
370
    25
100
AcDbPolyline
 90
       81
 70
   128
 43
0.0
 10
417.6427191102
 20
1260.2241450252
 10
423.9281814294
 20
1260.0484896298
 10
430.2038297454
 20
1259.5217977085
 10
436.4598653782
 20
1258.6448916283
 10
442.6865202708
 20
1257.4191405739
 10
448.8740722408
 20
1255.8464584101
 10
455.0128601602
 20
1253.9293006933
 10
461.0932990405
 20
1251.6706608379
 10
467.1058949982
 20
1249.0740654418
 10
473.0412600783
 20
1246.1435687804
 10
478.8901269129
 20
1242.8837464765
 10
484.6433631907
 20
1239.2996883556
 10
490.2919859163
 20
1235.3969904991
 10
495.8271754357
 20
1231.1817465062
 10
501.2402892076
 20
1226.6605379803
 10
506.5228752975
 20
1221.8404242515
 10
511.6666855741
 20
1216.7289313555
 10
516.6636885885
 20
1211.3340402815
 10
521.5060821135
 20
1205.6641745116
 10
526.1863053265
 20
1199.7281868681
 10
530.6970506145
 20
1193.5353456911
 10
535.0312749842
 20
1187.0953203668
 10
539.1822110588
 20
1180.4181662305
 10
543.1433776443
 20
1173.5143088657
 10
546.9085898494
 20
1166.394527826
 10
550.471968742
 20
1159.0699398045
 10
553.8279505292
 20
1151.5519812757
 10
556.9712952436
 20
1143.8523906397
 10
559.8970949258
 20
1135.983189893
 10
562.6007812866
 20
1127.9566658586
 10
565.078132841
 20
1119.7853510009
 10
567.3252814985
 20
1111.4820038582
 10
569.3387186031
 20
1103.0595891212
 10
571.115300412
 20
1094.5312573908
 10
572.6522530035
 20
1085.9103246446
 10
573.9471766085
 20
1077.2102514458
 10
574.9980493576
 20
1068.4446219258
 10
575.8032304377
 20
1059.6271225747
 10
576.3614626541
 20
1050.7715208709
 10
576.6718743936
 20
1041.8916437853
 10
576.733980985
 20
1033.0013561919
 10
576.5476854562
 20
1024.1145392194
 10
576.1132786856
 20
1015.2450685776
 10
575.4314389479
 20
1006.406792892
 10
574.5032308548
 20
997.6135120809
 10
573.330103693
 20
988.8789558085
 10
571.9138891614
 20
980.2167620476
 10
570.2567985109
 20
971.6404557854
 10
568.3614190918
 20
963.1634279061
 10
566.230710314
 20
954.7989142825
 10
563.8679990265
 20
946.5599751096
 10
561.2769743223
 20
938.459474513
 10
558.461681779
 20
930.5100604628
 10
555.4265171418
 20
922.7241450252
 10
552.1762194598
 20
915.1138849832
 10
548.7158636871
 20
907.6911628542
 10
545.0508527585
 20
900.4675683378
 10
541.1869091535
 20
893.4543802194
 10
537.1300659612
 20
886.6625487596
 10
532.8866574609
 20
880.102678597
 10
528.4633092311
 20
873.7850121903
 10
523.8669278051
 20
867.7194138255
 10
519.1046898867
 20
861.9153542144
 10
514.1840311452
 20
856.3818957072
 10
509.1126346051
 20
851.1276781425
 10
503.8984186502
 20
846.1609053573
 10
498.5495246595
 20
841.4893323776
 10
493.0743042962
 20
837.1202533102
 10
487.4813064669
 20
833.0604899533
 10
481.7792639738
 20
829.3163811456
 10
475.9770798793
 20
825.8937728684
 10
470.0838136052
 20
822.7980091184
 10
464.1086667872
 20
820.033923563
 10
458.0609689077
 20
817.6058319939
 10
451.9501627291
 20
815.5175255877
 10
445.7857895499
 20
813.772264987
 10
439.5774743069
 20
812.3727752091
 10
433.3349105475
 20
811.3212413911
 10
427.0678452939
 20
810.6193053783
 10
420.7860638247
 20
810.2680631603
 10
417.6427191102
 20
810.2241450252
  0
ARC
  5
A2
330
1F
100
AcDbEntity
  8
0
  6
Continuous
 62
     7
370
    25
100
AcDbCircle
 10
538.0005830309
 20
1035.2241450252
 30
0.0
 40
250.6346649440902
100
AcDbArc
 50
158.9139006218
 51
201.0860993782
  0
LWPOLYLINE
  5
A3
330
1F
100
AcDbEntity
  8
0
  6
Continuous
 62
     1
370
    25
100
AcDbPolyline
 90
       41
 70
   128
 43
0.0
 10
368.6427191102
 20
1035.2241450252
 10
368.5185119889
 20
1026.3351589676
 10
368.1460845598
 20
1017.4600520065
 10
367.526018324
 20
1008.6126815679
 10
366.6592814414
 20
999.8068617706
 10
365.5472272187
 20
991.0563418567
 10
364.1915919966
 20
982.3747847245
 10
362.5944924386
 20
973.7757455948
 10
360.758422226
 20
965.2726508465
 10
358.6862481645
 20
956.8787770525
 10
356.3812057079
 20
948.6072302505
 10
353.8468939065
 20
940.4709254789
 10
351.0872697872
 20
932.4825666117
 10
348.1066421755
 20
924.654626523
 10
344.9096649676
 20
916.9993276121
 10
341.501329864
 20
909.5286227194
 10
337.8869585752
 20
902.2541764639
 10
334.072194513
 20
895.1873470298
 10
330.0629939787
 20
888.3391684324
 10
325.8656168629
 20
881.7203332896
 10
321.4866168718
 20
875.3411761269
 10
316.9328312941
 20
869.2116572409
 10
312.2113703252
 20
863.3413471476
 10
307.3296059662
 20
857.7394116396
 10
302.2951605125
 20
852.414597474
 10
297.1158946531
 20
847.3752187161
 10
291.7998951967
 20
842.6291437576
 10
286.3554624456
 20
838.1837830312
 10
280.7910972351
 20
834.04607744
 10
275.115487661
 20
830.22248752
 10
269.337495514
 20
826.7189833531
 10
263.4661424428
 20
823.541035245
 10
257.5105958683
 20
820.6936051846
 10
251.4801546695
 20
818.1811390959
 10
245.3842346645
 20
816.0075598963
 10
239.2323539088
 20
814.1762613719
 10
233.0341178339
 20
812.6901028778
 10
226.7992042496
 20
811.5514048741
 10
220.5373482334
 20
810.7619453026
 10
214.25832693
 20
810.3229568108
 10
209.5436933432
 20
810.2241450252
  0
LWPOLYLINE
  5
A4
330
1F
100
AcDbEntity
  8
0
  6
Continuous
 62
     1
370
    25
100
AcDbPolyline
 90
       41
 70
   128
 43
0.0
 10
209.5436933432
 20
1260.2241450252
 10
214.2583269301
 20
1260.1253332397
 10
220.5373482334
 20
1259.6863447479
 10
226.7992042496
 20
1258.8968851764
 10
233.0341178339
 20
1257.7581871727
 10
239.2323539088
 20
1256.2720286786
 10
245.3842346645
 20
1254.4407301542
 10
251.4801546695
 20
1252.2671509546
 10
257.5105958683
 20
1249.7546848659
 10
263.4661424428
 20
1246.9072548054
 10
269.337495514
 20
1243.7293066974
 10
275.115487661
 20
1240.2258025305
 10
280.7910972351
 20
1236.4022126105
 10
286.3554624456
 20
1232.2645070193
 10
291.7998951967
 20
1227.8191462929
 10
297.1158946531
 20
1223.0730713344
 10
302.2951605125
 20
1218.0336925765
 10
307.3296059662
 20
1212.7088784109
 10
312.2113703252
 20
1207.1069429029
 10
316.9328312941
 20
1201.2366328096
 10
321.4866168718
 20
1195.1071139236
 10
325.8656168629
 20
1188.7279567609
 10
330.0629939787
 20
1182.1091216181
 10
334.072194513
 20
1175.2609430207
 10
337.8869585752
 20
1168.1941135866
 10
341.501329864
 20
1160.9196673311
 10
344.9096649676
 20
1153.4489624384
 10
348.1066421755
 20
1145.7936635275
 10
351.0872697872
 20
1137.9657234388
 10
353.8468939065
 20
1129.9773645716
 10
356.3812057079
 20
1121.8410598
 10
358.6862481645
 20
1113.569512998
 10
360.758422226
 20
1105.175639204
 10
362.5944924386
 20
1096.6725444557
 10
364.1915919966
 20
1088.073505326
 10
365.5472272187
 20
1079.3919481937
 10
366.6592814414
 20
1070.6414282799
 10
367.526018324
 20
1061.8356084826
 10
368.1460845598
 20
1052.988238044
 10
368.5185119889
 20
1044.1131310829
 10
368.6427191102
 20
1035.2241450252
  0
LWPOLYLINE
  5
A5
330
1F
100
AcDbEntity
  8
0
  6
Continuous
 62
     1
370
    25
100
AcDbPolyline
 90
       65
 70
   128
 43
0.0
 10
182.2466160423
 20
1215.231225835
 10
181.3679397045
 20
1214.960239936
 10
175.8510549249
 20
1213.0510896451
 10
170.3983059975
 20
1210.803435658
 10
165.0200725398
 20
1208.2215565119
 10
159.7265923248
 20
1205.3103669606
 10
154.527941793
 20
1202.0754086187
 10
149.4340168712
 20
1198.5228394134
 10
144.454514135
 20
1194.659421862
 10
139.5989123509
 20
1190.4925101994
 10
134.8764544327
 20
1186.0300363789
 10
130.2961298476
 20
1181.2804949729
 10
125.8666575038
 20
1176.2529270035
 10
121.5964691536
 20
1170.956902732
 10
117.4936933432
 20
1165.4025034417
 10
113.5661399397
 20
1159.6003022473
 10
109.821285264
 20
1153.5613439685
 10
106.2662578599
 20
1147.2971241058
 10
102.9078249242
 20
1140.8195669575
 10
99.7523794249
 20
1134.1410029219
 10
96.8059279317
 20
1127.2741450252
 10
94.0740791825
 20
1120.2320647218
 10
91.5620334068
 20
1113.0281670117
 10
89.2745724264
 20
1105.6761649237
 10
87.2160505533
 20
1098.1900534115
 10
85.3903863009
 20
1090.584082714
 10
83.8010549249
 20
1082.8727312286
 10
82.4510818078
 20
1075.0706779513
 10
81.3430367003
 20
1067.1927745337
 10
80.4790288292
 20
1059.254017013
 10
79.8607028825
 20
1051.2695172651
 10
79.4892358789
 20
1043.2544742392
 10
79.3653349268
 20
1035.2241450252
 10
79.4892358789
 20
1027.1938158113
 10
79.8607028825
 20
1019.1787727854
 10
80.4790288292
 20
1011.1942730375
 10
81.3430367003
 20
1003.2555155168
 10
82.4510818078
 20
995.3776120992
 10
83.8010549249
 20
987.5755588219
 10
85.3903863009
 20
979.8642073365
 10
87.2160505533
 20
972.258236639
 10
89.2745724264
 20
964.7721251268
 10
91.5620334068
 20
957.4201230388
 10
94.0740791825
 20
950.2162253287
 10
96.8059279317
 20
943.1741450252
 10
99.7523794249
 20
936.3072871286
 10
102.9078249242
 20
929.628723093
 10
106.2662578599
 20
923.1511659447
 10
109.821285264
 20
916.886946082
 10
113.5661399397
 20
910.8479878032
 10
117.4936933432
 20
905.0457866088
 10
121.5964691536
 20
899.4913873185
 10
125.8666575038
 20
894.195363047
 10
130.2961298476
 20
889.1677950776
 10
134.8764544327
 20
884.4182536716
 10
139.5989123509
 20
879.9557798511
 10
144.454514135
 20
875.7888681885
 10
149.4340168712
 20
871.9254506371
 10
154.527941793
 20
868.3728814318
 10
159.7265923248
 20
865.1379230899
 10
165.0200725398
 20
862.2267335386
 10
170.3983059975
 20
859.6448543925
 10
175.8510549249
 20
857.3972004054
 10
181.3679397045
 20
855.4880501145
 10
182.2466160423
 20
855.2170642155
  0
INSERT
  5
B1
330
1F
100
AcDbEntity
  8
FORMAT
 62
     7
100
AcDbBlockReference
  2
SW_CENTERMARKSYMBOL_0
 10
143.6427191102
 20
1035.2241450252
 30
0.0
  0
LINE
  5
B2
330
1F
100
AcDbEntity
  8
0
  6
Continuous
 62
     7
370
    25
100
AcDbLine
 10
382.337264694
 20
-369.8924046757
 30
0.0
 11
174.238238927
 21
-369.8924046757
 31
0.0
  0
LINE
  5
B3
330
1F
100
AcDbEntity
  8
0
  6
Continuous
 62
     7
370
    25
100
AcDbLine
 10
174.238238927
 20
-819.8924046757
 30
0.0
 11
382.337264694
 21
-819.8924046757
 31
0.0
  0
LINE
  5
B4
330
1F
100
AcDbEntity
  8
0
  6
Continuous
 62
     7
370
    25
100
AcDbLine
 10
108.337264694
 20
-819.8924046757
 30
0.0
 11
174.238238927
 21
-819.8924046757
 31
0.0
  0
LINE
  5
B5
330
1F
100
AcDbEntity
  8
0
  6
Continuous
 62
     7
370
    25
100
AcDbLine
 10
174.238238927
 20
-369.8924046757
 30
0.0
 11
108.337264694
 21
-369.8924046757
 31
0.0
  0
LWPOLYLINE
  5
B6
330
1F
100
AcDbEntity
  8
0
  6
Continuous
 62
     7
370
    25
100
AcDbPolyline
 90
      160
 70
   128
 43
0.0
 10
382.337264694
 20
-819.8924046757
 10
388.6227270133
 20
-819.7167492802
 10
394.8983753292
 20
-819.1900573589
 10
401.154410962
 20
-818.3131512787
 10
407.3810658546
 20
-817.0874002243
 10
413.5686178246
 20
-815.5147180605
 10
419.707405744
 20
-813.5975603438
 10
425.7878446243
 20
-811.3389204883
 10
431.800440582
 20
-808.7423250922
 10
437.7358056621
 20
-805.8118284308
 10
443.5846724967
 20
-802.5520061269
 10
449.3379087745
 20
-798.9679480061
 10
454.9865315001
 20
-795.0652501495
 10
460.5217210195
 20
-790.8500061567
 10
465.9348347914
 20
-786.3287976307
 10
471.2174208813
 20
-781.508683902
 10
476.3612311579
 20
-776.3971910059
 10
481.3582341723
 20
-771.002299932
 10
486.2006276973
 20
-765.332434162
 10
490.8808509103
 20
-759.3964465185
 10
495.3915961983
 20
-753.2036053415
 10
499.725820568
 20
-746.7635800173
 10
503.8767566426
 20
-740.086425881
 10
507.8379232281
 20
-733.1825685161
 10
511.6031354332
 20
-726.0627874764
 10
515.1665143258
 20
-718.7381994549
 10
518.522496113
 20
-711.2202409262
 10
521.6658408274
 20
-703.5206502901
 10
524.5916405096
 20
-695.6514495434
 10
527.2953268704
 20
-687.624925509
 10
529.7726784248
 20
-679.4536106514
 10
532.0198270823
 20
-671.1502635086
 10
534.0332641869
 20
-662.7278487716
 10
535.8098459958
 20
-654.1995170412
 10
537.3467985873
 20
-645.578584295
 10
538.6417221923
 20
-636.8785110962
 10
539.6925949414
 20
-628.1128815762
 10
540.4977760215
 20
-619.2953822251
 10
541.0560082379
 20
-610.4397805213
 10
541.3664199774
 20
-601.5599034357
 10
541.4285265688
 20
-592.6696158423
 10
541.24223104
 20
-583.7827988698
 10
540.8078242694
 20
-574.913328228
 10
540.1259845317
 20
-566.0750525424
 10
539.1977764386
 20
-557.2817717313
 10
538.0246492768
 20
-548.5472154589
 10
536.6084347452
 20
-539.885021698
 10
534.9513440947
 20
-531.3087154358
 10
533.0559646756
 20
-522.8316875565
 10
530.9252558978
 20
-514.4671739329
 10
528.5625446103
 20
-506.2282347601
 10
525.9715199061
 20
-498.1277341635
 10
523.1562273628
 20
-490.1783201132
 10
520.1210627256
 20
-482.3924046757
 10
516.8707650436
 20
-474.7821446336
 10
513.4104092709
 20
-467.3594225046
 10
509.7453983423
 20
-460.1358279882
 10
505.8814547373
 20
-453.1226398698
 10
501.824611545
 20
-446.33080841
 10
497.5812030447
 20
-439.7709382474
 10
493.1578548149
 20
-433.4532718407
 10
488.5614733889
 20
-427.3876734759
 10
483.7992354705
 20
-421.5836138648
 10
478.878576729
 20
-416.0501553577
 10
473.8071801889
 20
-410.7959377929
 10
468.592964234
 20
-405.8291650077
 10
463.2440702433
 20
-401.157592028
 10
457.76884988
 20
-396.7885129606
 10
452.1758520507
 20
-392.7287496037
 10
446.4738095576
 20
-388.984640796
 10
440.6716254631
 20
-385.5620325188
 10
434.778359189
 20
-382.4662687688
 10
428.803212371
 20
-379.7021832135
 10
422.7555144915
 20
-377.2740916443
 10
416.6447083129
 20
-375.1857852381
 10
410.4803351337
 20
-373.4405246375
 10
404.2720198907
 20
-372.0410348595
 10
398.0294561313
 20
-370.9895010415
 10
391.7623908777
 20
-370.2875650287
 10
385.4806094085
 20
-369.9363228108
 10
379.1939199796
 20
-369.9363228108
 10
372.9121385103
 20
-370.2875650287
 10
366.6450732567
 20
-370.9895010415
 10
360.4025094973
 20
-372.0410348595
 10
354.1941942544
 20
-373.4405246375
 10
348.0298210751
 20
-375.1857852381
 10
341.9190148965
 20
-377.2740916443
 10
335.871317017
 20
-379.7021832135
 10
329.896170199
 20
-382.4662687688
 10
324.0029039249
 20
-385.5620325188
 10
318.2007198305
 20
-388.984640796
 10
312.4986773373
 20
-392.7287496037
 10
306.905679508
 20
-396.7885129606
 10
301.4304591447
 20
-401.157592028
 10
296.0815651541
 20
-405.8291650077
 10
290.8673491991
 20
-410.7959377929
 10
285.795952659
 20
-416.0501553577
 10
280.8752939175
 20
-421.5836138649
 10
276.1130559992
 20
-427.3876734759
 10
271.5166745731
 20
-433.4532718407
 10
267.0933263433
 20
-439.7709382474
 10
262.849917843
 20
-446.33080841
 10
258.7930746508
 20
-453.1226398698
 10
254.9291310457
 20
-460.1358279882
 10
251.2641201171
 20
-467.3594225046
 10
247.8037643444
 20
-474.7821446336
 10
244.5534666625
 20
-482.3924046757
 10
241.5183020252
 20
-490.1783201132
 10
238.7030094819
 20
-498.1277341635
 10
236.1119847778
 20
-506.2282347601
 10
233.7492734902
 20
-514.4671739329
 10
231.6185647124
 20
-522.8316875565
 10
229.7231852933
 20
-531.3087154358
 10
228.0660946428
 20
-539.885021698
 10
226.6498801112
 20
-548.5472154589
 10
225.4767529495
 20
-557.2817717313
 10
224.5485448563
 20
-566.0750525424
 10
223.8667051186
 20
-574.913328228
 10
223.432298348
 20
-583.7827988698
 10
223.2460028193
 20
-592.6696158423
 10
223.3081094107
 20
-601.5599034357
 10
223.6185211501
 20
-610.4397805213
 10
224.1767533666
 20
-619.2953822251
 10
224.9819344467
 20
-628.1128815762
 10
226.0328071958
 20
-636.8785110962
 10
227.3277308008
 20
-645.578584295
 10
228.8646833922
 20
-654.1995170412
 10
230.6412652011
 20
-662.7278487716
 10
232.6547023058
 20
-671.1502635086
 10
234.9018509632
 20
-679.4536106514
 10
237.3792025176
 20
-687.624925509
 10
240.0828888785
 20
-695.6514495434
 10
243.0086885606
 20
-703.5206502901
 10
246.1520332751
 20
-711.2202409262
 10
249.5080150622
 20
-718.7381994549
 10
253.0713939549
 20
-726.0627874764
 10
256.8366061599
 20
-733.1825685161
 10
260.7977727454
 20
-740.086425881
 10
264.94870882
 20
-746.7635800173
 10
269.2829331898
 20
-753.2036053415
 10
273.7936784778
 20
-759.3964465185
 10
278.4739016908
 20
-765.332434162
 10
283.3162952158
 20
-771.002299932
 10
288.3132982301
 20
-776.3971910059
 10
293.4571085068
 20
-781.508683902
 10
298.7396945966
 20
-786.3287976307
 10
304.1528083686
 20
-790.8500061567
 10
309.687997888
 20
-795.0652501495
 10
315.3366206135
 20
-798.9679480061
 10
321.0898568913
 20
-802.5520061269
 10
326.9387237259
 20
-805.8118284308
 10
332.8740888061
 20
-808.7423250922
 10
338.8866847637
 20
-811.3389204883
 10
344.967123644
 20
-813.5975603438
 10
351.1059115635
 20
-815.5147180605
 10
357.2934635334
 20
-817.0874002243
 10
363.5201184261
 20
-818.3131512787
 10
369.7761540588
 20
-819.1900573589
 10
376.0518023748
 20
-819.7167492802
 10
382.337264694
 20
-819.8924046757
  0
LWPOLYLINE
  5
B7
330
1F
100
AcDbEntity
  8
0
  6
Continuous
 62
     7
370
    25
100
AcDbPolyline
 90
      145
 70
   128
 43
0.0
 10
382.337264694
 20
-778.9924046757
 10
376.6589644517
 20
-778.8171822689
 10
370.9914731766
 20
-778.2918485944
 10
365.3455792605
 20
-777.4174036546
 10
359.7320299833
 20
-776.1955120052
 10
354.1615110553
 20
-774.6284995864
 10
348.6446262757
 20
-772.7193492955
 10
343.1918773483
 20
-770.4716953084
 10
337.8136438905
 20
-767.8898161624
 10
332.5201636756
 20
-764.978626611
 10
327.3215131438
 20
-761.7436682691
 10
322.227588222
 20
-758.1910990638
 10
317.2480854858
 20
-754.3276815124
 10
312.3924837016
 20
-750.1607698498
 10
307.6700257835
 20
-745.6982960293
 10
303.0897011984
 20
-740.9487546233
 10
298.6602288546
 20
-735.9211866539
 10
294.3900405044
 20
-730.6251623824
 10
290.287264694
 20
-725.0707630921
 10
286.3597112904
 20
-719.2685618977
 10
282.6148566148
 20
-713.229603619
 10
279.0598292107
 20
-706.9653837562
 10
275.701396275
 20
-700.4878266079
 10
272.5459507756
 20
-693.8092625723
 10
269.5994992824
 20
-686.9424046757
 10
266.8676505333
 20
-679.9003243722
 10
264.3556047576
 20
-672.6964266621
 10
262.0681437772
 20
-665.3444245741
 10
260.0096219041
 20
-657.8583130619
 10
258.1839576517
 20
-650.2523423644
 10
256.5946262757
 20
-642.540990879
 10
255.2446531586
 20
-634.7389376017
 10
254.1366080511
 20
-626.8610341842
 10
253.27260018
 20
-618.9222766634
 10
252.6542742333
 20
-610.9377769155
 10
252.2828072296
 20
-602.9227338896
 10
252.1589062776
 20
-594.8924046757
 10
252.2828072296
 20
-586.8620754617
 10
252.6542742333
 20
-578.8470324358
 10
253.27260018
 20
-570.862532688
 10
254.1366080511
 20
-562.9237751672
 10
255.2446531586
 20
-555.0458717497
 10
256.5946262757
 20
-547.2438184723
 10
258.1839576517
 20
-539.5324669869
 10
260.0096219041
 20
-531.9264962894
 10
262.0681437772
 20
-524.4403847773
 10
264.3556047576
 20
-517.0883826892
 10
266.8676505333
 20
-509.8844849791
 10
269.5994992824
 20
-502.8424046757
 10
272.5459507756
 20
-495.975546779
 10
275.701396275
 20
-489.2969827434
 10
279.0598292107
 20
-482.8194255952
 10
282.6148566148
 20
-476.5552057324
 10
286.3597112904
 20
-470.5162474536
 10
290.287264694
 20
-464.7140462592
 10
294.3900405044
 20
-459.1596469689
 10
298.6602288546
 20
-453.8636226975
 10
303.0897011984
 20
-448.8360547281
 10
307.6700257835
 20
-444.0865133221
 10
312.3924837016
 20
-439.6240395015
 10
317.2480854858
 20
-435.457127839
 10
322.227588222
 20
-431.5937102876
 10
327.3215131438
 20
-428.0411410822
 10
332.5201636756
 20
-424.8061827403
 10
337.8136438905
 20
-421.894993189
 10
343.1918773483
 20
-419.3131140429
 10
348.6446262757
 20
-417.0654600559
 10
354.1615110553
 20
-415.1563097649
 10
359.7320299833
 20
-413.5892973461
 10
365.3455792605
 20
-412.3674056968
 10
370.9914731766
 20
-411.492960757
 10
376.6589644517
 20
-410.9676270824
 10
382.337264694
 20
-410.7924046757
 10
388.0155649364
 20
-410.9676270824
 10
393.6830562115
 20
-411.492960757
 10
399.3289501276
 20
-412.3674056968
 10
404.9424994047
 20
-413.5892973461
 10
410.5130183328
 20
-415.1563097649
 10
416.0299031124
 20
-417.0654600559
 10
421.4826520398
 20
-419.3131140429
 10
426.8608854975
 20
-421.894993189
 10
432.1543657125
 20
-424.8061827403
 10
437.3530162442
 20
-428.0411410822
 10
442.446941166
 20
-431.5937102876
 10
447.4264439022
 20
-435.457127839
 10
452.2820456864
 20
-439.6240395015
 10
457.0045036046
 20
-444.0865133221
 10
461.5848281896
 20
-448.8360547281
 10
466.0143005334
 20
-453.8636226975
 10
470.2844888837
 20
-459.1596469689
 10
474.387264694
 20
-464.7140462592
 10
478.3148180976
 20
-470.5162474536
 10
482.0596727733
 20
-476.5552057324
 10
485.6147001773
 20
-482.8194255952
 10
488.973133113
 20
-489.2969827434
 10
492.1285786124
 20
-495.975546779
 10
495.0750301056
 20
-502.8424046757
 10
497.8068788548
 20
-509.8844849791
 10
500.3189246305
 20
-517.0883826892
 10
502.6063856109
 20
-524.4403847773
 10
504.664907484
 20
-531.9264962894
 10
506.4905717364
 20
-539.5324669869
 10
508.0799031124
 20
-547.2438184723
 10
509.4298762294
 20
-555.0458717497
 10
510.5379213369
 20
-562.9237751672
 10
511.4019292081
 20
-570.862532688
 10
512.0202551548
 20
-578.8470324358
 10
512.3917221584
 20
-586.8620754617
 10
512.5156231105
 20
-594.8924046757
 10
512.3917221584
 20
-602.9227338896
 10
512.0202551548
 20
-610.9377769155
 10
511.4019292081
 20
-618.9222766634
 10
510.5379213369
 20
-626.8610341842
 10
509.4298762294
 20
-634.7389376017
 10
508.0799031124
 20
-642.540990879
 10
506.4905717364
 20
-650.2523423644
 10
504.664907484
 20
-657.8583130619
 10
502.6063856109
 20
-665.3444245741
 10
500.3189246305
 20
-672.6964266621
 10
497.8068788548
 20
-679.9003243722
 10
495.0750301056
 20
-686.9424046757
 10
492.1285786124
 20
-693.8092625723
 10
488.973133113
 20
-700.4878266079
 10
485.6147001773
 20
-706.9653837562
 10
482.0596727733
 20
-713.229603619
 10
478.3148180976
 20
-719.2685618977
 10
474.387264694
 20
-725.0707630921
 10
470.2844888837
 20
-730.6251623824
 10
466.0143005334
 20
-735.9211866539
 10
461.5848281896
 20
-740.9487546233
 10
457.0045036046
 20
-745.6982960293
 10
452.2820456864
 20
-750.1607698498
 10
447.4264439022
 20
-754.3276815124
 10
442.446941166
 20
-758.1910990638
 10
437.3530162442
 20
-761.7436682691
 10
432.1543657125
 20
-764.978626611
 10
426.8608854975
 20
-767.8898161624
 10
421.4826520398
 20
-770.4716953084
 10
416.0299031124
 20
-772.7193492955
 10
410.5130183328
 20
-774.6284995865
 10
404.9424994047
 20
-776.1955120052
 10
399.3289501276
 20
-777.4174036546
 10
393.6830562115
 20
-778.2918485944
 10
388.0155649364
 20
-778.8171822689
 10
382.337264694
 20
-778.9924046757
  0
ARC
  5
B8
330
1F
100
AcDbEntity
  8
0
  6
Continuous
 62
     7
370
    25
100
AcDbCircle
 10
108.337264694
 20
-594.8924046757
 30
0.0
 40
225.0
100
AcDbArc
 50
90.0
 51
270.0
  0
ARC
  5
B9
330
1F
100
AcDbEntity
  8
0
  6
Continuous
 62
     7
370
    25
100
AcDbCircle
 10
108.337264694
 20
-594.8924046757
 30
0.0
 40
184.1000000000001
100
AcDbArc
 50
330.6730032367
 51
29.3269967633
  0
LWPOLYLINE
  5
BA
330
1F
100
AcDbEntity
  8
0
  6
Continuous
 62
     1
370
    25
100
AcDbPolyline
 90
       82
 70
   128
 43
0.0
 10
174.238238927
 20
-369.8924046757
 10
172.6664898699
 20
-369.9033844773
 10
166.3825613254
 20
-370.1668461407
 10
160.1108984891
 20
-370.7811900872
 10
153.8612938178
 20
-371.7454570917
 10
147.6435053274
 20
-373.0581415657
 10
141.4672413565
 20
-374.7171939083
 10
135.3421454082
 20
-376.7200237061
 10
129.2777810927
 20
-379.0635037781
 10
123.2836171949
 20
-381.7439750585
 10
117.3690128904
 20
-384.7572523094
 10
111.5432031314
 20
-388.0986306563
 10
105.8152842286
 20
-391.7628929334
 10
100.1941996472
 20
-395.7443178301
 10
94.6887260436
 20
-400.0366888242
 10
89.3074595612
 20
-404.6333038878
 10
84.058802409
 20
-409.5269859521
 10
78.9509497419
 20
-414.7100941136
 10
73.9918768656
 20
-420.1745355641
 10
69.1893267837
 20
-425.911778227
 10
64.550798108
 20
-431.9128640788
 10
60.0835333506
 20
-438.1684231365
 10
55.7945076149
 20
-444.6686880871
 10
51.6904177055
 20
-451.4035095385
 10
47.7776716716
 20
-458.3623718665
 10
44.0623788018
 20
-465.5344096336
 10
40.5503400847
 20
-472.9084245543
 10
37.247039152
 20
-480.4729029796
 10
34.1576337159
 20
-488.2160338744
 10
31.2869475162
 20
-496.1257272589
 10
28.6394627888
 20
-504.1896330859
 10
26.2193132666
 20
-512.3951605236
 10
24.030277726
 20
-520.7294976151
 10
22.0757740861
 20
-529.1796312824
 10
20.3588540722
 20
-537.7323676446
 10
18.8821984512
 20
-546.3743526194
 10
17.6481128455
 20
-555.0920927731
 10
16.6585241334
 20
-563.8719763892
 10
15.91497744
 20
-572.7002947217
 10
15.4186337254
 20
-581.5632633996
 10
15.1702679712
 20
-590.4470439493
 10
15.1702679712
 20
-599.3377654021
 10
15.4186337254
 20
-608.2215459518
 10
15.91497744
 20
-617.0845146296
 10
16.6585241334
 20
-625.9128329621
 10
17.6481128455
 20
-634.6927165783
 10
18.8821984512
 20
-643.4104567319
 10
20.3588540722
 20
-652.0524417067
 10
22.0757740861
 20
-660.605178069
 10
24.030277726
 20
-669.0553117362
 10
26.2193132666
 20
-677.3896488277
 10
28.6394627888
 20
-685.5951762655
 10
31.2869475162
 20
-693.6590820925
 10
34.1576337159
 20
-701.568775477
 10
37.247039152
 20
-709.3119063717
 10
40.5503400847
 20
-716.876384797
 10
44.0623788018
 20
-724.2503997177
 10
47.7776716716
 20
-731.4224374849
 10
51.6904177055
 20
-738.3812998129
 10
55.7945076149
 20
-745.1161212643
 10
60.0835333506
 20
-751.6163862148
 10
64.550798108
 20
-757.8719452725
 10
69.1893267837
 20
-763.8730311244
 10
73.9918768656
 20
-769.6102737872
 10
78.9509497419
 20
-775.0747152377
 10
84.058802409
 20
-780.2578233992
 10
89.3074595612
 20
-785.1515054636
 10
94.6887260436
 20
-789.7481205272
 10
100.1941996472
 20
-794.0404915212
 10
105.8152842286
 20
-798.021916418
 10
111.5432031314
 20
-801.686178695
 10
117.3690128904
 20
-805.0275570419
 10
123.2836171949
 20
-808.0408342929
 10
129.2777810927
 20
-810.7213055732
 10
135.3421454082
 20
-813.0647856453
 10
141.4672413565
 20
-815.0676154431
 10
147.6435053274
 20
-816.7266677856
 10
153.8612938178
 20
-818.0393522596
 10
160.1108984891
 20
-819.0036192641
 10
166.3825613254
 20
-819.6179632106
 10
172.6664898699
 20
-819.881424874
 10
174.238238927
 20
-819.8924046757
  0
LWPOLYLINE
  5
BB
330
1F
100
AcDbEntity
  8
0
  6
Continuous
 62
     1
370
    25
100
AcDbPolyline
 90
       31
 70
   128
 43
0.0
 10
278.2877518105
 20
-484.2569323469
 10
280.8741073461
 20
-489.2969827434
 10
284.0295528454
 20
-495.975546779
 10
286.9760043386
 20
-502.8424046757
 10
289.7078530878
 20
-509.8844849791
 10
292.2198988635
 20
-517.0883826892
 10
294.5073598439
 20
-524.4403847773
 10
296.565881717
 20
-531.9264962894
 10
298.3915459694
 20
-539.5324669869
 10
299.9808773454
 20
-547.2438184723
 10
301.3308504625
 20
-555.0458717497
 10
302.43889557
 20
-562.9237751672
 10
303.3029034411
 20
-570.862532688
 10
303.9212293878
 20
-578.8470324358
 10
304.2926963914
 20
-586.8620754617
 10
304.4165973435
 20
-594.8924046757
 10
304.2926963914
 20
-602.9227338896
 10
303.9212293878
 20
-610.9377769155
 10
303.3029034411
 20
-618.9222766634
 10
302.43889557
 20
-626.8610341842
 10
301.3308504624
 20
-634.7389376017
 10
299.9808773454
 20
-642.540990879
 10
298.3915459694
 20
-650.2523423644
 10
296.565881717
 20
-657.8583130619
 10
294.5073598439
 20
-665.3444245741
 10
292.2198988635
 20
-672.6964266621
 10
289.7078530878
 20
-679.9003243722
 10
286.9760043386
 20
-686.9424046757
 10
284.0295528454
 20
-693.8092625723
 10
280.8741073461
 20
-700.4878266079
 10
278.2877518105
 20
-705.5278770045
  0
INSERT
  5
C7
330
1F
100
AcDbEntity
  8
FORMAT
 62
     7
100
AcDbBlockReference
  2
SW_CENTERMARKSYMBOL_1
 10
108.337264694
 20
-594.8924046757
 30
0.0
  0
LINE
  5
C8
330
1F
100
AcDbEntity
  8
0
  6
Continuous
 62
     7
370
    25
100
AcDbLine
 10
682.5453216642
 20
-683.348169722
 30
0.0
 11
682.5453216642
 21
-913.4509615134
 31
0.0
  0
LINE
  5
C9
330
1F
100
AcDbEntity
  8
0
  6
Continuous
 62
     7
370
    25
100
AcDbLine
 10
1132.5453216642
 20
-913.4509615134
 30
0.0
 11
1132.5453216642
 21
-683.348169722
 31
0.0
  0
LINE
  5
CA
330
1F
100
AcDbEntity
  8
0
  6
Continuous
 62
     7
370
    25
100
AcDbLine
 10
906.4368640008
 20
-159.1680630323
 30
0.0
 11
759.2886317226
 21
-414.0362768339
 31
0.0
  0
LINE
  5
CB
330
1F
100
AcDbEntity
  8
0
  6
Continuous
 62
     7
370
    25
100
AcDbLine
 10
1149.0000631397
 20
-639.0362773292
 30
0.0
 11
1296.1482954178
 21
-384.1680635275
 31
0.0
  0
SPLINE
  5
CC
330
1F
100
AcDbEntity
  8
0
  6
Continuous
 62
     7
370
    25
100
AcDbSpline
210
0.0
220
0.0
230
1.0
 70
     8
 71
     3
 72
    32
 73
    28
 74
     0
 42
0.00000001
 43
0.00000001
 40
0.0
 40
0.0
 40
0.0
 40
0.0
 40
0.0241598266339781
 40
0.0656816748843704
 40
0.1072255220325742
 40
0.1488026479908266
 40
0.1904251975391109
 40
0.2321050100177301
 40
0.2738534430473416
 40
0.3156811748122
 40
0.3575979790190413
 40
0.3996124674048684
 40
0.4417317959054177
 40
0.4839613326260565
 40
0.5263042888557277
 40
0.568761318808865
 40
0.6113300997731317
 40
0.6540049119009583
 40
0.6967762456853465
 40
0.7396304743580269
 40
0.7825496365203634
 40
0.825511379051579
 40
0.8684803755463686
 40
0.9114240536563176
 40
0.9543080283813302
 40
0.9942508938432181
 40
1.0
 40
1.0
 40
1.0
 40
1.0
 10
759.2886317226352
 20
-414.0362768339338
 30
0.0
 10
758.1292439009193
 20
-416.0603194640634
 30
0.0
 10
754.977295208384
 20
-421.5629462833016
 30
0.0
 10
749.999826864394
 20
-430.6396332351127
 30
0.0
 10
744.4134131408758
 20
-441.2906236959412
 30
0.0
 10
739.0402861341046
 20
-452.0512725656012
 30
0.0
 10
733.8798533239539
 20
-462.9155288269238
 30
0.0
 10
728.936436883613
 20
-473.8802517078881
 30
0.0
 10
724.2133691137096
 20
-484.9415508956664
 30
0.0
 10
719.7146118347553
 20
-496.0956794414353
 30
0.0
 10
715.444341577278
 20
-507.3387177734442
 30
0.0
 10
711.4070770911835
 20
-518.666570277835
 30
0.0
 10
707.6076556778621
 20
-530.0748644253762
 30
0.0
 10
704.0512423667051
 20
-541.5588617328237
 30
0.0
 10
700.7433196052928
 20
-553.1133513385947
 30
0.0
 10
697.689668034954
 20
-564.7325356691439
 30
0.0
 10
694.8963317446766
 20
-576.4099092524319
 30
0.0
 10
692.3695652927286
 20
-588.1381366049276
 30
0.0
 10
690.1157612721315
 20
-599.9089365149795
 30
0.0
 10
688.1413495612939
 20
-611.7129837404294
 30
0.0
 10
686.4526941395297
 20
-623.5398372960826
 30
0.0
 10
685.0559860727807
 20
-635.3771178312528
 30
0.0
 10
683.9571475552999
 20
-647.2111163189642
 30
0.0
 10
683.1607759086147
 20
-659.0271164571177
 30
0.0
 10
682.6839245592839
 20
-670.5493763190076
 30
0.0
 10
682.550763235299
 20
-678.6500464533323
 30
0.0
 10
682.545929819605
 20
-682.8231027798282
 30
0.0
 10
682.5453216641909
 20
-683.3481697219923
 30
0.0
  0
SPLINE
  5
CD
330
1F
100
AcDbEntity
  8
0
  6
Continuous
 62
     7
370
    25
100
AcDbSpline
210
0.0
220
0.0
230
1.0
 70
     8
 71
     3
 72
    28
 73
    24
 74
     0
 42
0.00000001
 43
0.00000001
 40
0.0
 40
0.0
 40
0.0
 40
0.0
 40
0.0135371419836028
 40
0.0677670322010339
 40
0.120713636845797
 40
0.1725852717705289
 40
0.2235794527712164
 40
0.2738810370023594
 40
0.3236605752261804
 40
0.3730728580670777
 40
0.4222556703077789
 40
0.4713287894050243
 40
0.5203932769815508
 40
0.569530800901848
 40
0.6187822685903583
 40
0.6681981225321462
 40
0.7178107143294384
 40
0.7676356364000502
 40
0.8176732856734746
 40
0.8679107597783473
 40
0.9183240374865107
 40
0.9688803910729346
 40
1.0
 40
1.0
 40
1.0
 40
1.0
 10
1132.543502745157
 20
-683.5399816817364
 30
0.0
 10
1132.54331072889
 20
-683.5486685858315
 30
0.0
 10
1132.542349494051
 20
-683.5921552915372
 30
0.0
 10
1132.551152448539
 20
-683.3733462349256
 30
0.0
 10
1132.591327164563
 20
-682.8719043042169
 30
0.0
 10
1132.677567275671
 20
-682.0600476579348
 30
0.0
 10
1132.822893602
 20
-680.9774523546675
 30
0.0
 10
1133.040199147396
 20
-679.6269998270467
 30
0.0
 10
1133.341095383563
 20
-678.0218409772135
 30
0.0
 10
1133.736209253221
 20
-676.1733464647157
 30
0.0
 10
1134.235050890941
 20
-674.0945162032694
 30
0.0
 10
1134.845946139385
 20
-671.799335300183
 30
0.0
 10
1135.5759094525
 20
-669.3031828001394
 30
0.0
 10
1136.430375156365
 20
-666.6233082829107
 30
0.0
 10
1137.413127958819
 20
-663.7785242187897
 30
0.0
 10
1138.526169703615
 20
-660.7891335412571
 30
0.0
 10
1139.769852578548
 20
-657.6763753789969
 30
0.0
 10
1141.142466010704
 20
-654.4627753006604
 30
0.0
 10
1142.640629454371
 20
-651.1722521513566
 30
0.0
 10
1144.25741918168
 20
-647.8288764348077
 30
0.0
 10
1145.989174380051
 20
-644.460403513873
 30
0.0
 10
1147.575301959702
 20
-641.5188177473622
 30
0.0
 10
1148.613753385405
 20
-639.7249511891707
 30
0.0
 10
1149.009416947402
 20
-639.0414645911519
 30
0.0
  0
LWPOLYLINE
  5
CE
330
1F
100
AcDbEntity
  8
0
  6
Continuous
 62
     7
370
    25
100
AcDbPolyline
 90
      160
 70
   128
 43
0.0
 10
748.4462958972
 20
-821.6050489334
 10
754.8559653377
 20
-818.0482320166
 10
761.5040410828
 20
-814.6403751369
 10
768.3801429514
 20
-811.3867992583
 10
775.4735347266
 20
-808.2925844534
 10
782.7731409193
 20
-805.3625619711
 10
790.2675640608
 20
-802.6013066939
 10
797.9451024992
 20
-800.0131299941
 10
805.7937686694
 20
-797.6020730023
 10
813.801307811
 20
-795.3719002978
 10
821.9552171022
 20
-793.3260940305
 10
830.2427651815
 20
-791.4678484842
 10
838.6510120263
 20
-789.8000650886
 10
847.1668291574
 20
-788.3253478895
 10
855.7769201372
 20
-787.0459994827
 10
864.4678413307
 20
-785.9640174191
 10
873.2260228961
 20
-785.081091085
 10
882.0377899727
 20
-784.3985990651
 10
890.889384032
 20
-783.9176069898
 10
899.7669843608
 20
-783.6388658711
 10
908.6567296399
 20
-783.56281093
 10
917.5447395874
 20
-783.6895609175
 10
926.4171366308
 20
-784.0189179283
 10
935.2600675753
 20
-784.5503677108
 10
944.0597252341
 20
-785.283080469
 10
952.8023699862
 20
-786.215912159
 10
961.4743512297
 20
-787.3474062749
 10
970.0621286953
 20
-788.6757961229
 10
978.5522935879
 20
-790.19900758
 10
986.9315895228
 20
-791.9146623322
 10
995.1869332242
 20
-793.8200815884
 10
1003.3054349529
 20
-795.9122902625
 10
1011.2744186321
 20
-798.1880216191
 10
1019.0814416397
 20
-800.6437223739
 10
1026.7143142361
 20
-803.2755582415
 10
1034.1611185969
 20
-806.0794199227
 10
1041.4102274209
 20
-809.0509295204
 10
1048.4503220853
 20
-812.185447375
 10
1055.270410318
 20
-815.4780793089
 10
1061.8598433608
 20
-818.9236842684
 10
1068.2083325961
 20
-822.5168823502
 10
1074.3059656118
 20
-826.2520632021
 10
1080.1432216776
 20
-830.1233947825
 10
1085.7109866111
 20
-834.1248324669
 10
1091.0005670084
 20
-838.2501284852
 10
1096.0037038175
 20
-842.4928416773
 10
1100.7125852343
 20
-846.8463475504
 10
1105.1198588993
 20
-851.3038486217
 10
1109.2186433779
 20
-855.8583850325
 10
1113.0025389047
 20
-860.5028454148
 10
1116.4656373761
 20
-865.2299779951
 10
1119.6025315747
 20
-870.032401917
 10
1122.4083236129
 20
-874.9026187656
 10
1124.8786325792
 20
-879.8330242754
 10
1127.0096013796
 20
-884.8159202035
 10
1128.7979027592
 20
-889.8435263495
 10
1130.2407444977
 20
-894.9079927031
 10
1131.3358737689
 20
-900.0014117013
 10
1132.0815806586
 20
-905.115830575
 10
1132.4767008339
 20
-910.2432637662
 10
1132.5206173616
 20
-915.3757053966
 10
1132.2132616712
 20
-920.505141768
 10
1131.5551136622
 20
-925.6235638743
 10
1130.5472009546
 20
-930.722979907
 10
1129.1910972844
 20
-935.7954277332
 10
1127.4889200465
 20
-940.8329873279
 10
1125.4433269885
 20
-945.8277931398
 10
1123.0575120613
 20
-950.7720463724
 10
1120.3352004317
 20
-955.6580271613
 10
1117.280642666
 20
-960.4781066274
 10
1113.8986080937
 20
-965.2247587889
 10
1110.1943773602
 20
-969.8905723119
 10
1106.1737341822
 20
-974.4682620825
 10
1101.8429563166
 20
-978.9506805813
 10
1097.208805759
 20
-983.3308290442
 10
1092.2785181854
 20
-987.6018683891
 10
1087.0597916546
 20
-991.7571298951
 10
1081.5607745885
 20
-995.7901256148
 10
1075.7900530496
 20
-999.694558504
 10
1069.7566373345
 20
-1003.4643322541
 10
1063.4699479056
 20
-1007.0935608111
 10
1056.9398006822
 20
-1010.5765775654
 10
1050.176391714
 20
-1013.9079441997
 10
1043.1902812612
 20
-1017.0824591804
 10
1035.9923773061
 20
-1020.0951658794
 10
1028.5939185211
 20
-1022.9413603127
 10
1021.0064567215
 20
-1025.6165984855
 10
1013.2418388282
 20
-1028.1167033311
 10
1005.3121883702
 20
-1030.4377712325
 10
997.2298865555
 20
-1032.5761781177
 10
989.0075529389
 20
-1034.5285851181
 10
980.6580257183
 20
-1036.2919437821
 10
972.1943416894
 20
-1037.8635008344
 10
963.62971589
 20
-1039.2408024751
 10
954.9775209666
 20
-1040.4216982114
 10
946.2512662945
 20
-1041.4043442147
 10
937.4645768846
 20
-1042.1872061998
 10
928.6311721093
 20
-1042.7690618208
 10
919.7648442815
 20
-1043.1490025791
 10
910.8794371198
 20
-1043.3264352424
 10
901.9888241325
 20
-1043.3010827706
 10
893.1068869565
 20
-1043.0729847486
 10
884.2474936824
 20
-1042.6424973243
 10
875.4244772011
 20
-1042.0102926529
 10
866.6516136054
 20
-1041.1773578468
 10
857.9426006804
 20
-1040.1449934349
 10
849.3110365161
 20
-1038.9148113316
 10
840.7703982752
 20
-1037.4887323202
 10
832.3340211506
 20
-1035.868983054
 10
824.0150775435
 20
-1034.0580925789
 10
815.8265564971
 20
-1032.0588883857
 10
807.7812434147
 20
-1029.8744919942
 10
799.8917000979
 20
-1027.5083140802
 10
792.1702451318
 20
-1024.9640491496
 10
784.6289346519
 20
-1022.2456697701
 10
777.2795435193
 20
-1019.3574203683
 10
770.1335469358
 20
-1016.3038106029
 10
763.2021025267
 20
-1013.089608323
 10
756.4960329198
 20
-1009.7198321239
 10
750.0258088466
 20
-1006.1997435111
 10
743.801532794
 20
-1002.5348386852
 10
737.8329232302
 20
-998.73083996
 10
732.1292994304
 20
-994.793686828
 10
726.6995669262
 20
-990.7295266863
 10
721.5522036004
 20
-986.5447052386
 10
716.6952464497
 20
-982.2457565868
 10
712.1362790361
 20
-977.839393029
 10
707.8824196462
 20
-973.3324945787
 10
703.9403101764
 20
-968.7320982229
 10
700.3161057627
 20
-964.0453869344
 10
697.01546517
 20
-959.2796784566
 10
694.0435419568
 20
-954.4424138774
 10
691.4049764284
 20
-949.5411460113
 10
689.1038883917
 20
-944.5835276063
 10
687.1438707226
 20
-939.577299395
 10
685.5279837558
 20
-934.5302780085
 10
684.2587505071
 20
-929.4503437715
 10
683.3381527336
 20
-924.3454283984
 10
682.7676278394
 20
-919.2235026085
 10
682.5480666314
 20
-914.0925636809
 10
682.6798119283
 20
-908.9606229677
 10
683.1626580255
 20
-903.8356933851
 10
683.9958510162
 20
-898.7257769023
 10
685.1780899684
 20
-893.6388520473
 10
686.7075289562
 20
-888.5828614493
 10
688.5817799424
 20
-883.5656994376
 10
690.7979165065
 20
-878.595199715
 10
693.3524784142
 20
-873.6791231269
 10
696.2414770204
 20
-868.8251455432
 10
699.4604014968
 20
-864.0408458737
 10
703.0042258749
 20
-859.3336942344
 10
706.8674168935
 20
-854.7110402839
 10
711.0439426385
 20
-850.1801017476
 10
715.5272819608
 20
-845.7479531481
 10
720.3104346582
 20
-841.4215147593
 10
725.3859324055
 20
-837.2075418012
 10
730.7458504155
 20
-833.1126138924
 10
736.3818198125
 20
-829.1431247766
 10
742.2850406993
 20
-825.3052723399
 10
748.4462958972
 20
-821.6050489334
  0
LWPOLYLINE
  5
CF
330
1F
100
AcDbEntity
  8
0
  6
Continuous
 62
     7
370
    25
100
AcDbPolyline
 90
      145
 70
   128
 43
0.0
 10
777.3669632477
 20
-838.3005948202
 10
771.8125639574
 20
-841.6501342727
 10
766.516539686
 20
-845.1363506809
 10
761.4889717166
 20
-848.7526078335
 10
756.7394303106
 20
-852.4920219795
 10
752.27695649
 20
-856.3474749316
 10
748.1100448275
 20
-860.311627616
 10
744.2466272761
 20
-864.3769340427
 10
740.6940580707
 20
-868.5356556698
 10
737.4590997289
 20
-872.7798761345
 10
734.5479101775
 20
-877.1015163218
 10
731.9660310314
 20
-881.4923497439
 10
729.7183770444
 20
-885.9440182
 10
727.8092267534
 20
-890.4480476861
 10
726.2422143346
 20
-894.995864526
 10
725.0203226853
 20
-899.578811692
 10
724.1458777455
 20
-904.1881652835
 10
723.620544071
 20
-908.8151511342
 10
723.4453216642
 20
-913.4509615135
 10
723.620544071
 20
-918.0867718927
 10
724.1458777455
 20
-922.7137577434
 10
725.0203226853
 20
-927.3231113349
 10
726.2422143346
 20
-931.9060585009
 10
727.8092267534
 20
-936.4538753408
 10
729.7183770444
 20
-940.9579048269
 10
731.9660310314
 20
-945.409573283
 10
734.5479101775
 20
-949.8004067051
 10
737.4590997289
 20
-954.1220468924
 10
740.6940580707
 20
-958.3662673571
 10
744.2466272761
 20
-962.5249889842
 10
748.1100448275
 20
-966.5902954109
 10
752.27695649
 20
-970.5544480953
 10
756.7394303106
 20
-974.4099010474
 10
761.4889717166
 20
-978.1493151934
 10
766.516539686
 20
-981.765572346
 10
771.8125639574
 20
-985.2517887542
 10
777.3669632477
 20
-988.6013282067
 10
783.1691644421
 20
-991.807814665
 10
789.2081227209
 20
-994.8651443999
 10
795.4723425837
 20
-997.7674976103
 10
801.949899732
 20
-1000.509349502
 10
808.6284637675
 20
-1003.0854808041
 10
815.4953216642
 20
-1005.4909877042
 10
822.5374019676
 20
-1007.7212911833
 10
829.7412996777
 20
-1009.7721457319
 10
837.0933017658
 20
-1011.6396474318
 10
844.5794132779
 20
-1013.3202413873
 10
852.1853839755
 20
-1014.8107284924
 10
859.8967354608
 20
-1016.1082715202
 10
867.6987887382
 20
-1017.2104005237
 10
875.5766921557
 20
-1018.1150175377
 10
883.5154496765
 20
-1018.8204005724
 10
891.4999494243
 20
-1019.325206891
 10
899.5149924502
 20
-1019.6284755661
 10
907.5453216642
 20
-1019.7296293084
 10
915.5756508782
 20
-1019.6284755661
 10
923.590693904
 20
-1019.325206891
 10
931.5751936519
 20
-1018.8204005724
 10
939.5139511727
 20
-1018.1150175377
 10
947.3918545902
 20
-1017.2104005237
 10
955.1939078676
 20
-1016.1082715202
 10
962.9052593529
 20
-1014.8107284924
 10
970.5112300504
 20
-1013.3202413873
 10
977.9973415626
 20
-1011.6396474318
 10
985.3493436507
 20
-1009.7721457319
 10
992.5532413608
 20
-1007.7212911833
 10
999.5953216642
 20
-1005.4909877042
 10
1006.4621795608
 20
-1003.0854808041
 10
1013.1407435964
 20
-1000.509349502
 10
1019.6183007447
 20
-997.7674976103
 10
1025.8825206075
 20
-994.8651443999
 10
1031.9214788862
 20
-991.807814665
 10
1037.7236800806
 20
-988.6013282067
 10
1043.2780793709
 20
-985.2517887542
 10
1048.5741036424
 20
-981.765572346
 10
1053.6016716118
 20
-978.1493151934
 10
1058.3512130178
 20
-974.4099010474
 10
1062.8136868383
 20
-970.5544480953
 10
1066.9805985009
 20
-966.5902954109
 10
1070.8440160523
 20
-962.5249889842
 10
1074.3965852576
 20
-958.3662673571
 10
1077.6315435995
 20
-954.1220468924
 10
1080.5427331509
 20
-949.8004067051
 10
1083.1246122969
 20
-945.409573283
 10
1085.372266284
 20
-940.9579048269
 10
1087.281416575
 20
-936.4538753408
 10
1088.8484289937
 20
-931.9060585009
 10
1090.0703206431
 20
-927.3231113349
 10
1090.9447655829
 20
-922.7137577433
 10
1091.4700992574
 20
-918.0867718927
 10
1091.6453216642
 20
-913.4509615134
 10
1091.4700992574
 20
-908.8151511342
 10
1090.9447655829
 20
-904.1881652835
 10
1090.0703206431
 20
-899.578811692
 10
1088.8484289937
 20
-894.995864526
 10
1087.281416575
 20
-890.4480476861
 10
1085.372266284
 20
-885.9440182
 10
1083.1246122969
 20
-881.4923497439
 10
1080.5427331509
 20
-877.1015163218
 10
1077.6315435995
 20
-872.7798761345
 10
1074.3965852576
 20
-868.5356556698
 10
1070.8440160523
 20
-864.3769340427
 10
1066.9805985009
 20
-860.311627616
 10
1062.8136868383
 20
-856.3474749316
 10
1058.3512130178
 20
-852.4920219795
 10
1053.6016716118
 20
-848.7526078335
 10
1048.5741036424
 20
-845.1363506809
 10
1043.2780793709
 20
-841.6501342727
 10
1037.7236800806
 20
-838.3005948202
 10
1031.9214788862
 20
-835.0941083619
 10
1025.8825206075
 20
-832.036778627
 10
1019.6183007447
 20
-829.1344254166
 10
1013.1407435964
 20
-826.3925735249
 10
1006.4621795608
 20
-823.8164422228
 10
999.5953216642
 20
-821.4109353227
 10
992.5532413608
 20
-819.1806318436
 10
985.3493436507
 20
-817.129777295
 10
977.9973415626
 20
-815.2622755951
 10
970.5112300504
 20
-813.5816816396
 10
962.9052593529
 20
-812.0911945345
 10
955.1939078676
 20
-810.7936515067
 10
947.3918545902
 20
-809.6915225032
 10
939.5139511727
 20
-808.7869054892
 10
931.5751936519
 20
-808.0815224545
 10
923.590693904
 20
-807.5767161359
 10
915.5756508781
 20
-807.2734474608
 10
907.5453216642
 20
-807.1722937185
 10
899.5149924502
 20
-807.2734474608
 10
891.4999494243
 20
-807.5767161359
 10
883.5154496765
 20
-808.0815224545
 10
875.5766921557
 20
-808.7869054892
 10
867.6987887382
 20
-809.6915225032
 10
859.8967354608
 20
-810.7936515067
 10
852.1853839755
 20
-812.0911945345
 10
844.5794132779
 20
-813.5816816396
 10
837.0933017658
 20
-815.2622755951
 10
829.7412996777
 20
-817.129777295
 10
822.5374019676
 20
-819.1806318436
 10
815.4953216642
 20
-821.4109353227
 10
808.6284637675
 20
-823.8164422228
 10
801.949899732
 20
-826.3925735249
 10
795.4723425837
 20
-829.1344254166
 10
789.2081227209
 20
-832.036778627
 10
783.1691644421
 20
-835.0941083619
 10
777.3669632477
 20
-838.3005948202
  0
LWPOLYLINE
  5
D0
330
1F
100
AcDbEntity
  8
0
  6
Continuous
 62
     7
370
    25
100
AcDbPolyline
 90
      160
 70
   128
 43
0.0
 10
942.1935539423
 20
-179.8221506998
 10
946.7622540924
 20
-182.4604392379
 10
951.5722350021
 20
-185.2380148914
 10
956.6159864572
 20
-188.1505408055
 10
961.8856332385
 20
-191.1934694169
 10
967.3729474181
 20
-194.3620495537
 10
973.0693612063
 20
-197.6513338541
 10
978.9659803292
 20
-201.0561864912
 10
985.053597916
 20
-204.5712911918
 10
991.3227088744
 20
-208.1911595372
 10
997.763524732
 20
-211.9101395325
 10
1004.3659889192
 20
-215.7224244321
 10
1011.1197924722
 20
-219.6220618057
 10
1018.0143901282
 20
-223.6029628323
 10
1025.0390167915
 20
-227.6589118075
 10
1032.1827043415
 20
-231.7835758486
 10
1039.434298758
 20
-235.9705147823
 10
1046.7824775373
 20
-240.2131912003
 10
1054.2157673703
 20
-244.5049806672
 10
1061.7225620574
 20
-248.8391820632
 10
1069.2911406299
 20
-253.2090280472
 10
1076.9096856507
 20
-257.6076956235
 10
1084.5663016661
 20
-262.0283167949
 10
1092.2490337792
 20
-266.463989286
 10
1099.9458863157
 20
-270.907787321
 10
1107.6448415541
 20
-275.3527724366
 10
1115.3338784896
 20
-279.7920043163
 10
1123.000991604
 20
-284.2185516264
 10
1130.6342096101
 20
-288.6255028388
 10
1138.2216141441
 20
-293.0059770223
 10
1145.7513583747
 20
-297.3531345864
 10
1153.2116854999
 20
-301.6601879607
 10
1160.5909471046
 20
-305.9204121926
 10
1167.8776213477
 20
-310.1271554477
 10
1175.0603309525
 20
-314.2738493957
 10
1182.1278609704
 20
-318.3540194663
 10
1189.0691762924
 20
-322.3612949582
 10
1195.8734388785
 20
-326.2894189866
 10
1202.5300246805
 20
-330.132258252
 10
1209.0285402297
 20
-333.883812617
 10
1215.3588388657
 20
-337.5382244749
 10
1221.5110365784
 20
-341.0897878953
 10
1227.4755274415
 20
-344.5329575337
 10
1233.2429986106
 20
-347.8623572892
 10
1238.8044448639
 20
-351.0727886994
 10
1244.1511826635
 20
-354.1592390568
 10
1249.274863713
 20
-357.1168892355
 10
1254.1674879925
 20
-359.9411212159
 10
1258.82141625
 20
-362.627525295
 10
1263.2293819291
 20
-365.1719069716
 10
1267.3845025146
 20
-367.5702934959
 10
1271.2802902789
 20
-369.818940072
 10
1274.9106624119
 20
-371.9143357052
 10
1278.2699505185
 20
-373.853208684
 10
1281.3529094691
 20
-375.6325316883
 10
1284.1547255892
 20
-377.2495265165
 10
1286.6710241755
 20
-378.7016684231
 10
1288.8978763265
 20
-379.986690061
 10
1290.831805077
 20
-381.1025850213
 10
1292.4697908267
 20
-382.0476109666
 10
1293.8092760554
 20
-382.8202923511
 10
1294.8481693158
 20
-383.4194227244
 10
1295.5848484995
 20
-383.8440666156
 10
1296.0181633693
 20
-384.0935609937
 10
1296.1474373556
 20
-384.1675163028
 10
1295.9724686123
 20
-384.0658170705
 10
1295.4935303324
 20
-383.7886220881
 10
1294.7113703211
 20
-383.3363641627
 10
1293.6272098285
 20
-382.7097494412
 10
1292.2427416425
 20
-381.9097563082
 10
1290.5601274457
 20
-380.937633858
 10
1288.5819944406
 20
-379.7948999445
 10
1286.3114312469
 20
-378.4833388109
 10
1283.7519830797
 20
-377.0049983044
 10
1280.9076462133
 20
-375.362186678
 10
1277.7828617421
 20
-373.5574689872
 10
1274.3825086462
 20
-371.5936630843
 10
1270.7118961733
 20
-369.4738352193
 10
1266.776755549
 20
-367.2012952516
 10
1262.5832310283
 20
-364.7795914827
 10
1258.1378703019
 20
-362.2125051155
 10
1253.447614273
 20
-359.5040443506
 10
1248.5197862194
 20
-356.658438128
 10
1243.3620803598
 20
-353.6801295241
 10
1237.9825498395
 20
-350.5737688142
 10
1232.389594157
 20
-347.3442062117
 10
1226.5919460486
 20
-343.9964842954
 10
1220.5986578536
 20
-340.5358301355
 10
1214.4190873801
 20
-336.9676471328
 10
1208.0628832937
 20
-333.2975065814
 10
1201.5399700527
 20
-329.5311389702
 10
1194.8605324117
 20
-325.6744250351
 10
1188.0349995198
 20
-321.733386577
 10
1181.0740286363
 20
-317.7141770596
 10
1173.988488491
 20
-313.6230720017
 10
1166.7894423135
 20
-309.4664591779
 10
1159.4881305601
 20
-305.2508286459
 10
1152.0959533623
 20
-300.9827626123
 10
1144.6244527272
 20
-296.6689251556
 10
1137.0852945162
 20
-292.3160518208
 10
1129.4902502299
 20
-287.930939103
 10
1121.8511786283
 20
-283.5204338351
 10
1114.180007215
 20
-279.0914224975
 10
1106.4887136134
 20
-274.6508204657
 10
1098.7893068656
 20
-270.2055612127
 10
1091.0938086812
 20
-265.762585483
 10
1083.414234667
 20
-261.3288304559
 10
1075.7625755664
 20
-256.9112189135
 10
1068.1507785366
 20
-252.5166484318
 10
1060.5907284952
 20
-248.151980611
 10
1053.0942295629
 20
-243.8240303618
 10
1045.6729866328
 20
-239.5395552646
 10
1038.3385870949
 20
-235.3052450189
 10
1031.1024827433
 20
-231.1277109974
 10
1023.9759718961
 20
-227.0134759235
 10
1016.970181754
 20
-222.9689636869
 10
1010.0960510266
 20
-219.0004893134
 10
1003.3643128531
 20
-215.1142491047
 10
996.7854780434
 20
-211.3163109635
 10
990.3698186673
 20
-207.6126049193
 10
984.1273520153
 20
-204.0089138695
 10
978.0678249579
 20
-200.5108645499
 10
972.2006987274
 20
-197.1239187492
 10
966.5351341449
 20
-193.8533647813
 10
961.079977317
 20
-190.7043092279
 10
955.8437458235
 20
-187.6816689655
 10
950.8346154183
 20
-184.7901634881
 10
946.060407264
 20
-182.0343075381
 10
941.5285757197
 20
-179.4184040576
 10
937.2461967025
 20
-176.9465374693
 10
933.2199566389
 20
-174.6225672994
 10
929.4561420248
 20
-172.4501221514
 10
925.9606296099
 20
-170.4325940407
 10
922.738877222
 20
-168.5731330978
 10
919.7959152449
 20
-166.8746426503
 10
917.1363387644
 20
-165.3397746893
 10
914.7643003935
 20
-163.9709257291
 10
912.6835037885
 20
-162.7702330647
 10
910.8971978663
 20
-161.7395714353
 10
909.4081717316
 20
-160.8805500966
 10
908.2187503218
 20
-160.1945103085
 10
907.3307907774
 20
-159.6825232406
 10
906.7456795418
 20
-159.3453883
 10
906.4643301967
 20
-159.1836318828
 10
906.4871820357
 20
-159.1975065526
 10
906.8141993783
 20
-159.3869906457
 10
907.4448716259
 20
-159.7517883051
 10
908.3782140586
 20
-160.2913299427
 10
909.6127693729
 20
-161.0047731281
 10
911.1466099572
 20
-161.8910039046
 10
912.9773409017
 20
-162.9486385279
 10
915.1021037372
 20
-164.1760256273
 10
917.5175808988
 20
-165.5712487833
 10
920.2200009056
 20
-167.1321295208
 10
923.2051442496
 20
-168.8562307096
 10
926.4683499838
 20
-170.7408603706
 10
930.0045229999
 20
-172.783075878
 10
933.8081419834
 20
-174.979688555
 10
937.8732680348
 20
-177.3272686515
 10
942.1935539423
 20
-179.8221506998
  0
LWPOLYLINE
  5
D1
330
1F
100
AcDbEntity
  8
0
  6
Continuous
 62
     7
370
    25
100
AcDbPolyline
 90
      145
 70
   128
 43
0.0
 10
971.1142212929
 20
-196.5176965866
 10
967.2229576379
 20
-194.2705643833
 10
963.5869031286
 20
-192.1707627182
 10
960.2129792014
 20
-190.222288683
 10
957.1076083121
 20
-188.4288513088
 10
954.2767017109
 20
-186.7938645057
 10
951.7256481893
 20
-185.3204405638
 10
949.4593038226
 20
-184.0113842294
 10
947.4819827262
 20
-182.8691873657
 10
945.7974488432
 20
-181.8960242093
 10
944.4089087796
 20
-181.0937472316
 10
943.3190057003
 20
-180.4638836124
 10
942.5298142977
 20
-180.0076323329
 10
942.0428368426
 20
-179.7258618933
 10
941.8590003242
 20
-179.6191086597
 10
941.9786546857
 20
-179.687575843
 10
942.4015721584
 20
-179.9311331119
 10
943.1269476947
 20
-180.3493168414
 10
944.1534005011
 20
-180.941330995
 10
945.4789766663
 20
-181.70604864
 10
947.1011528808
 20
-182.642014093
 10
949.0168412399
 20
-183.7474456905
 10
951.222395122
 20
-185.0202391807
 10
953.7136161298
 20
-186.4579717289
 10
956.4857620827
 20
-188.0579065293
 10
959.5335560432
 20
-189.8169980151
 10
962.8511963624
 20
-191.7318976559
 10
966.4323677232
 20
-193.7989603311
 10
970.2702531625
 20
-196.0142512696
 10
974.3575470472
 20
-198.3735535392
 10
978.686468981
 20
-200.8723760738
 10
983.2487786152
 20
-203.5059622228
 10
988.0357913338
 20
-206.2692988052
 10
993.0383947863
 20
-209.1571256529
 10
998.2470662325
 20
-212.1639456232
 10
1003.6518906703
 20
-215.2840350634
 10
1009.2425797093
 20
-218.511454706
 10
1015.008491155
 20
-221.8400609743
 10
1020.9386492674
 20
-225.263517677
 10
1027.0217656534
 20
-228.7753080697
 10
1033.2462607552
 20
-232.3687472598
 10
1039.6002858927
 20
-236.0369949316
 10
1046.0717458178
 20
-239.7730683671
 10
1052.6483217387
 20
-243.5698557383
 10
1059.3174947695
 20
-247.4201296445
 10
1066.0665697601
 20
-251.3165608705
 10
1072.8826994628
 20
-255.251732338
 10
1079.7529089873
 20
-259.2181532246
 10
1086.6641204992
 20
-263.2082732226
 10
1093.6031781146
 20
-267.2144969117
 10
1100.556872943
 20
-271.2291982176
 10
1107.5119682311
 20
-275.244734928
 10
1114.4552245596
 20
-279.2534632407
 10
1121.3734250456
 20
-283.2477523134
 10
1128.2534005011
 20
-287.2199987899
 10
1135.0820545019
 20
-291.1626412733
 10
1141.8463883169
 20
-295.0681747194
 10
1148.5335256524
 20
-298.9291647234
 10
1155.1307371622
 20
-302.7382616715
 10
1161.6254646794
 20
-306.4882147309
 10
1168.0053451209
 20
-310.1718856531
 10
1174.2582340218
 20
-313.7822623609
 10
1180.3722286525
 20
-317.3124722972
 10
1186.335690677
 20
-320.7557955066
 10
1192.1372683061
 20
-324.1056774278
 10
1197.7659179073
 20
-327.3557413701
 10
1203.210925026
 20
-330.499800652
 10
1208.4619247817
 20
-333.5318703782
 10
1213.508921598
 20
-336.4461788313
 10
1218.3423082295
 20
-339.2371784598
 10
1222.9528840501
 20
-341.8995564372
 10
1227.3318725667
 20
-344.4282447756
 10
1231.4709381257
 20
-346.8184299732
 10
1235.3622017807
 20
-349.0655621764
 10
1238.99825629
 20
-351.1653638416
 10
1242.3721802172
 20
-353.1138378768
 10
1245.4775511065
 20
-354.9072752509
 10
1248.3084577077
 20
-356.5422620541
 10
1250.8595112294
 20
-358.015685996
 10
1253.125855596
 20
-359.3247423303
 10
1255.1031766924
 20
-360.466939194
 10
1256.7877105754
 20
-361.4401023505
 10
1258.176250639
 20
-362.2423793282
 10
1259.2661537183
 20
-362.8722429474
 10
1260.0553451209
 20
-363.3284942269
 10
1260.542322576
 20
-363.6102646665
 10
1260.7261590944
 20
-363.7170179
 10
1260.6065047329
 20
-363.6485507168
 10
1260.1835872602
 20
-363.4049934479
 10
1259.4582117239
 20
-362.9868097184
 10
1258.4317589175
 20
-362.3947955648
 10
1257.1061827523
 20
-361.6300779198
 10
1255.4840065378
 20
-360.6941124668
 10
1253.5683181787
 20
-359.5886808692
 10
1251.3627642966
 20
-358.315887379
 10
1248.8715432888
 20
-356.8781548309
 10
1246.0993973359
 20
-355.2782200305
 10
1243.0516033754
 20
-353.5191285446
 10
1239.7339630562
 20
-351.6042289039
 10
1236.1527916954
 20
-349.5371662287
 10
1232.3149062561
 20
-347.3218752901
 10
1228.2276123714
 20
-344.9625730206
 10
1223.8986904376
 20
-342.463750486
 10
1219.3363808034
 20
-339.830164337
 10
1214.5493680848
 20
-337.0668277545
 10
1209.5467646323
 20
-334.1790009069
 10
1204.3380931861
 20
-331.1721809366
 10
1198.9332687483
 20
-328.0520914963
 10
1193.3425797093
 20
-324.8246718537
 10
1187.5766682636
 20
-321.4960655855
 10
1181.6465101512
 20
-318.0726088828
 10
1175.5633937652
 20
-314.5608184901
 10
1169.3388986634
 20
-310.9673793
 10
1162.9848735259
 20
-307.2991316282
 10
1156.5134136009
 20
-303.5630581926
 10
1149.9368376799
 20
-299.7662708215
 10
1143.2676646492
 20
-295.9159969153
 10
1136.5185896585
 20
-292.0195656893
 10
1129.7024599558
 20
-288.0843942217
 10
1122.8322504314
 20
-284.1179733352
 10
1115.9210389194
 20
-280.1278533372
 10
1108.981981304
 20
-276.1216296481
 10
1102.0282864756
 20
-272.1069283422
 10
1095.0731911875
 20
-268.0913916318
 10
1088.129934859
 20
-264.0826633191
 10
1081.211734373
 20
-260.0883742464
 10
1074.3317589175
 20
-256.1161277699
 10
1067.5031049167
 20
-252.1734852865
 10
1060.7387711017
 20
-248.2679518404
 10
1054.0516337662
 20
-244.4069618363
 10
1047.4544222564
 20
-240.5978648883
 10
1040.9596947392
 20
-236.8479118288
 10
1034.5798142977
 20
-233.1642409067
 10
1028.3269253968
 20
-229.5538641989
 10
1022.2129307661
 20
-226.0236542626
 10
1016.2494687416
 20
-222.5803310532
 10
1010.4478911125
 20
-219.230449132
 10
1004.8192415113
 20
-215.9803851897
 10
999.3742343926
 20
-212.8363259077
 10
994.1232346369
 20
-209.8042561816
 10
989.0762378206
 20
-206.8899477284
 10
984.2428511891
 20
-204.0989481
 10
979.6322753685
 20
-201.4365701226
 10
975.2532868519
 20
-198.9078817841
 10
971.1142212929
 20
-196.5176965866
  0
LWPOLYLINE
  5
D2
330
1F
100
AcDbEntity
  8
0
  6
Continuous
 62
     1
370
    25
100
AcDbPolyline
 90
       21
 70
   128
 43
0.0
 10
1066.6443474312
 20
-591.5022571419
 10
1072.8056026291
 20
-595.2024805485
 10
1078.7088235159
 20
-599.0403329851
 10
1084.3447929129
 20
-603.0098221009
 10
1089.7047109229
 20
-607.1047500097
 10
1094.7802086702
 20
-611.3187229678
 10
1099.5633613676
 20
-615.6451613566
 10
1104.0467006898
 20
-620.0773099561
 10
1108.2232264349
 20
-624.6082484925
 10
1112.0864174535
 20
-629.230902443
 10
1115.6302418316
 20
-633.9380540822
 10
1118.8491663079
 20
-638.7223537517
 10
1121.7381649142
 20
-643.5763313354
 10
1124.2927268219
 20
-648.4924079236
 10
1126.508863386
 20
-653.4629076462
 10
1128.3831143721
 20
-658.4800696579
 10
1129.91255336
 20
-663.5360602558
 10
1131.0947923122
 20
-668.6229851108
 10
1131.9279853029
 20
-673.7329015937
 10
1132.4108314001
 20
-678.8578311763
 10
1132.5453216642
 20
-683.348169722
  0
LWPOLYLINE
  5
D3
330
1F
100
AcDbEntity
  8
0
  6
Continuous
 62
     1
370
    25
100
AcDbPolyline
 90
       61
 70
   128
 43
0.0
 10
682.5453216642
 20
-683.348169722
 10
682.6139424945
 20
-680.1404719747
 10
683.0090626698
 20
-675.0130387835
 10
683.7547695595
 20
-669.8986199098
 10
684.8498988307
 20
-664.8052009116
 10
686.2927405692
 20
-659.740734558
 10
688.0810419488
 20
-654.7131284121
 10
690.2120107492
 20
-649.7302324839
 10
692.6823197155
 20
-644.7998269741
 10
695.4881117536
 20
-639.9296101255
 10
698.6250059523
 20
-635.1271862036
 10
702.0881044237
 20
-630.4000536233
 10
705.8719999505
 20
-625.755593241
 10
709.9707844291
 20
-621.2010568302
 10
714.3780580941
 20
-616.7435557589
 10
719.0869395109
 20
-612.3900498859
 10
724.09007632
 20
-608.1473366937
 10
729.3796567172
 20
-604.0220406754
 10
734.9474216508
 20
-600.0206029911
 10
740.7846777166
 20
-596.1492714106
 10
746.8823107322
 20
-592.4140905587
 10
753.2307999676
 20
-588.8208924769
 10
759.8202330104
 20
-585.3752875175
 10
766.6403212431
 20
-582.0826555835
 10
773.6804159075
 20
-578.9481377289
 10
780.9295247315
 20
-575.9766281313
 10
788.3763290923
 20
-573.17276645
 10
796.0092016887
 20
-570.5409305824
 10
803.8162246963
 20
-568.0852298277
 10
811.7852083755
 20
-565.8094984711
 10
819.9037101041
 20
-563.7172897969
 10
828.1590538056
 20
-561.8118705407
 10
836.5383497405
 20
-560.0962157885
 10
845.0285146331
 20
-558.5730043315
 10
853.6162920987
 20
-557.2446144834
 10
862.2882733422
 20
-556.1131203676
 10
871.0309180943
 20
-555.1802886775
 10
879.830575753
 20
-554.4475759193
 10
888.6735066976
 20
-553.9161261369
 10
897.545903741
 20
-553.586769126
 10
906.4339136885
 20
-553.4600191386
 10
915.3236589676
 20
-553.5360740796
 10
924.2012592964
 20
-553.8148151984
 10
933.0528533557
 20
-554.2958072737
 10
941.8646204322
 20
-554.9782992935
 10
950.6228019977
 20
-555.8612256276
 10
959.3137231912
 20
-556.9432076913
 10
967.923814171
 20
-558.222556098
 10
976.4396313021
 20
-559.6972732971
 10
984.8478781469
 20
-561.3650566927
 10
993.1354262262
 20
-563.2233022391
 10
1001.2893355174
 20
-565.2691085063
 10
1009.296874659
 20
-567.4992812108
 10
1017.1455408292
 20
-569.9103382026
 10
1024.8230792675
 20
-572.4985149025
 10
1032.3175024091
 20
-575.2597701797
 10
1039.6171086018
 20
-578.1897926619
 10
1046.710500377
 20
-581.2840074669
 10
1053.5866022456
 20
-584.5375833455
 10
1060.2346779907
 20
-587.9454402251
 10
1066.6443474312
 20
-591.5022571419
  0
LWPOLYLINE
  5
D4
330
1F
100
AcDbEntity
  8
0
  6
Continuous
 62
     1
370
    25
100
AcDbPolyline
 90
       26
 70
   128
 43
0.0
 10
1066.6443474312
 20
-591.5022571419
 10
1072.8419820527
 20
-595.0800589706
 10
1078.854284408
 20
-598.5508378206
 10
1084.6718670006
 20
-601.9091744825
 10
1090.2856463661
 20
-605.1498253125
 10
1095.6868572541
 20
-608.2677304189
 10
1100.8670663152
 20
-611.258021563
 10
1105.8181852678
 20
-614.1160297602
 10
1110.5324835274
 20
-616.8372925699
 10
1115.0026002768
 20
-619.4175610633
 10
1119.2215559595
 20
-621.8528064575
 10
1123.1827631769
 20
-624.1392264058
 10
1126.8800369741
 20
-626.2732509349
 10
1130.3076044971
 20
-628.2515480188
 10
1133.4601140061
 20
-630.0710287814
 10
1136.3326432315
 20
-631.7288523196
 10
1138.9207070602
 20
-633.2224301387
 10
1141.2202645375
 20
-634.5494301942
 10
1143.2277251776
 20
-635.707780533
 10
1144.9399545688
 20
-636.6956725286
 10
1146.3542792683
 20
-637.511563705
 10
1147.468490976
 20
-638.1541801448
 10
1148.2808499824
 20
-638.6225184789
 10
1148.7900878855
 20
-638.9158474524
 10
1148.9954095707
 20
-639.0337090671
 10
1149.0000631397
 20
-639.0362773292
  0
LWPOLYLINE
  5
D5
330
1F
100
AcDbEntity
  8
0
  6
Continuous
 62
     1
370
    25
100
AcDbPolyline
 90
       57
 70
   128
 43
0.0
 10
759.2886317226
 20
-414.0362768339
 10
759.3047117687
 20
-414.0457827695
 10
759.5557170605
 20
-414.1913815373
 10
760.1105493996
 20
-414.5123935233
 10
760.9683424811
 20
-415.0083175054
 10
762.127756963
 20
-415.6783791573
 10
763.5869825571
 20
-416.5215322572
 10
765.343740856
 20
-417.5364603215
 10
767.39528889
 20
-418.7215786607
 10
769.7384234105
 20
-420.0750368531
 10
772.3694858911
 20
-421.5947216344
 10
775.28436824
 20
-423.2782601972
 10
778.4785192144
 20
-425.1230238959
 10
781.9469515268
 20
-427.126132351
 10
785.6842496319
 20
-429.2844579464
 10
789.6845781823
 20
-431.5946307128
 10
793.9416911397
 20
-434.0530435899
 10
798.4489415278
 20
-436.6558580576
 10
803.1992918101
 20
-439.3990101301
 10
808.1853248784
 20
-442.2782167012
 10
813.3992556341
 20
-445.2889822316
 10
818.8329431432
 20
-448.4266057682
 10
824.4779033476
 20
-451.6861882844
 10
830.3253223122
 20
-455.062640329
 10
836.3660699862
 20
-458.550689973
 10
842.5907144594
 20
-462.1448910409
 10
848.9895366882
 20
-465.8396316143
 10
855.5525456714
 20
-469.6291427945
 10
862.2694940495
 20
-473.5075077097
 10
869.129894105
 20
-477.4686707533
 10
876.1230341374
 20
-481.5064470395
 10
883.2379951889
 20
-485.61453206
 10
890.4636680924
 20
-489.7865115276
 10
897.7887708173
 20
-494.0158713916
 10
905.2018660852
 20
-498.2960080088
 10
912.691379228
 20
-502.6202384538
 10
920.2456162598
 20
-506.9818109541
 10
927.8527821364
 20
-511.373915432
 10
935.5009991711
 20
-515.7896941377
 10
943.1783255811
 20
-520.222252357
 10
950.8727741324
 20
-524.6646691764
 10
958.5723308571
 20
-529.1100082894
 10
966.2649738113
 20
-533.5513288266
 10
973.9386918462
 20
-537.9816961932
 10
981.581503362
 20
-542.3941928965
 10
989.1814750159
 20
-546.7819293468
 10
996.7267403541
 20
-551.1380546143
 10
1004.2055183407
 20
-555.4557671267
 10
1011.6061317515
 20
-559.7283252882
 10
1018.9170254072
 20
-563.9490580067
 10
1026.1267842152
 20
-568.1113751089
 10
1033.224150993
 20
-572.2087776307
 10
1040.1980440449
 20
-576.2348679647
 10
1047.0375744647
 20
-580.1833598485
 10
1053.7320631376
 20
-584.0480881809
 10
1060.2710574142
 20
-587.8230186473
 10
1066.6443474312
 20
-591.5022571419
  0
LINE
  5
D6
330
1F
100
AcDbEntity
  8
0
  6
Continuous
 62
     7
370
    25
100
AcDbLine
 10
-42.5794477946
 20
105.6918749675
 30
0.0
 11
-42.5794477946
 21
-176.1100734985
 31
0.0
  0
LINE
  5
D7
330
1F
100
AcDbEntity
  8
0
  6
Continuous
 62
     7
370
    25
100
AcDbLine
 10
407.4205522054
 20
-176.1100734985
 30
0.0
 11
407.4205522054
 21
105.6918749675
 31
0.0
  0
ARC
  5
D8
330
1F
100
AcDbEntity
  8
0
  6
Continuous
 62
     7
370
    25
100
AcDbCircle
 10
407.4205522054
 20
105.6918749675
 30
0.0
 40
449.9999999999999
100
AcDbArc
 50
135.0
 51
180.0
  0
LINE
  5
D9
330
1F
100
AcDbEntity
  8
0
  6
Continuous
 62
     7
370
    25
100
AcDbLine
 10
297.3215264385
 20
631.9889522685
 30
0.0
 11
89.2225006715
 21
423.8899265015
 31
0.0
  0
LINE
  5
DA
330
1F
100
AcDbEntity
  8
0
  6
Continuous
 62
     7
370
    25
100
AcDbLine
 10
407.4205522054
 20
105.6918749675
 30
0.0
 11
615.5195779724
 21
313.7909007345
 31
0.0
  0
LINE
  5
DB
330
1F
100
AcDbEntity
  8
0
  6
Continuous
 62
     7
370
    25
100
AcDbLine
 10
182.4205522054
 20
-176.1100734985
 30
0.0
 11
407.4205522054
 21
-176.1100734985
 31
0.0
  0
LINE
  5
DC
330
1F
100
AcDbEntity
  8
0
  6
Continuous
 62
     7
370
    25
100
AcDbLine
 10
-42.5794477946
 20
-176.1100734985
 30
0.0
 11
182.4205522054
 21
-176.1100734985
 31
0.0
  0
LINE
  5
DD
330
1F
100
AcDbEntity
  8
0
  6
Continuous
 62
     7
370
    25
100
AcDbLine
 10
456.4205522054
 20
472.8899265015
 30
0.0
 11
615.5195779724
 21
313.7909007345
 31
0.0
  0
LINE
  5
DE
330
1F
100
AcDbEntity
  8
0
  6
Continuous
 62
     7
370
    25
100
AcDbLine
 10
297.3215264385
 20
631.9889522685
 30
0.0
 11
456.4205522054
 21
472.8899265015
 31
0.0
  0
LINE
  5
DF
330
1F
100
AcDbEntity
  8
0
  6
Continuous
 62
     1
370
    25
100
AcDbLine
 10
-42.5794477946
 20
105.6918749675
 30
0.0
 11
407.4205522054
 21
105.6918749675
 31
0.0
  0
LINE
  5
E0
330
1F
100
AcDbEntity
  8
0
  6
Continuous
 62
     1
370
    25
100
AcDbLine
 10
89.2225006715
 20
423.8899265015
 30
0.0
 11
407.4205522054
 21
105.6918749675
 31
0.0
  0
ENDSEC
  0
SECTION
  2
OBJECTS
  0
DICTIONARY
  5
C
330
0
100
AcDbDictionary
281
     1
  3
ACAD_GROUP
350
D
  3
ACAD_LAYOUT
350
1A
  3
ACAD_MLINESTYLE
350
17
  3
ACAD_PLOTSETTINGS
350
19
  3
ACAD_PLOTSTYLENAME
350
E
  3
ACAD_SCALELIST
350
47
  3
DWGPROPS
350
E1
  0
DICTIONARY
  5
D
102
{ACAD_REACTORS
330
C
102
}
330
C
100
AcDbDictionary
281
     1
  0
DICTIONARY
  5
1A
102
{ACAD_REACTORS
330
C
102
}
330
C
100
AcDbDictionary
281
     1
  3
Layout1
350
1E
  3
Layout2
350
26
  3
Model
350
22
  0
DICTIONARY
  5
17
102
{ACAD_REACTORS
330
C
102
}
330
C
100
AcDbDictionary
281
     1
  3
Standard
350
18
  0
DICTIONARY
  5
19
102
{ACAD_REACTORS
330
C
102
}
330
C
100
AcDbDictionary
281
     1
  0
ACDBDICTIONARYWDFLT
  5
E
102
{ACAD_REACTORS
330
C
102
}
330
C
100
AcDbDictionary
281
     1
  3
Normal
350
F
100
AcDbDictionaryWithDefault
340
F
  0
DICTIONARY
  5
47
102
{ACAD_REACTORS
330
C
102
}
330
C
100
AcDbDictionary
281
     1
  3
A0
350
48
  3
A1
350
49
  3
A2
350
4A
  3
A3
350
4B
  3
A4
350
4C
  3
A5
350
4D
  3
A6
350
4E
  3
A7
350
4F
  3
A8
350
50
  3
A9
350
51
  3
B0
350
52
  3
B1
350
53
  3
B2
350
54
  3
B3
350
55
  3
B4
350
56
  3
B5
350
57
  3
B6
350
58
  3
B7
350
59
  3
B8
350
5A
  3
B9
350
5B
  3
C0
350
5C
  3
C1
350
5D
  3
C2
350
5E
  3
C3
350
5F
  3
C4
350
60
  3
C5
350
61
  3
C6
350
62
  3
C7
350
63
  3
C8
350
64
  3
C9
350
65
  3
D0
350
66
  3
D1
350
67
  3
D2
350
68
  0
XRECORD
  5
E1
102
{ACAD_REACTORS
330
C
102
}
330
C
100
AcDbXrecord
280
     1
  1
DWGPROPS COOKIE
  2

  3

  4

  6

  7

  8
b.kav
  9

300
=
301
=
302
=
303
=
304
=
305
=
306
=
307
=
308
=
309
=
 40
0.0
 41
2459935.574736644
 42
2459935.574736782
  1

 90
        0
  0
LAYOUT
  5
1E
102
{ACAD_REACTORS
330
1A
102
}
330
1A
100
AcDbPlotSettings
  1

  2
none_device
  4

  6

 40
0.0
 41
0.0
 42
0.0
 43
0.0
 44
0.0
 45
0.0
 46
0.0
 47
0.0
 48
0.0
 49
0.0
140
0.0
141
0.0
142
1.0
143
1.0
 70
   688
 72
     1
 73
     0
 74
     5
  7

 75
    16
147
1.0
148
0.0
149
0.0
100
AcDbLayout
  1
Layout1
 70
     1
 71
     1
 10
0.0
 20
0.0
 11
420.0
 21
297.0
 12
0.0
 22
0.0
 32
0.0
 14
1.0000000000E+20
 24
1.0000000000E+20
 34
1.0000000000E+20
 15
-1.0000000000E+20
 25
-1.0000000000E+20
 35
-1.0000000000E+20
146
0.0
 13
0.0
 23
0.0
 33
0.0
 16
1.0
 26
0.0
 36
0.0
 17
0.0
 27
1.0
 37
0.0
 76
     0
330
1B
  0
LAYOUT
  5
26
102
{ACAD_REACTORS
330
1A
102
}
330
1A
100
AcDbPlotSettings
  1

  2
none_device
  4

  6

 40
0.0
 41
0.0
 42
0.0
 43
0.0
 44
0.0
 45
0.0
 46
0.0
 47
0.0
 48
0.0
 49
0.0
140
0.0
141
0.0
142
1.0
143
1.0
 70
   688
 72
     1
 73
     0
 74
     5
  7

 75
    16
147
1.0
148
0.0
149
0.0
100
AcDbLayout
  1
Layout2
 70
     1
 71
     2
 10
0.0
 20
0.0
 11
0.0
 21
0.0
 12
0.0
 22
0.0
 32
0.0
 14
0.0
 24
0.0
 34
0.0
 15
0.0
 25
0.0
 35
0.0
146
0.0
 13
0.0
 23
0.0
 33
0.0
 16
1.0
 26
0.0
 36
0.0
 17
0.0
 27
1.0
 37
0.0
 76
     0
330
23
  0
LAYOUT
  5
22
102
{ACAD_REACTORS
330
1A
102
}
330
1A
100
AcDbPlotSettings
  1

  2
none_device
  4
Letter_(8.50_x_11.00_Inches)
  6

 40
6.35
 41
6.35
 42
6.35000508
 43
6.35000508
 44
215.9
 45
279.4
 46
0.0
 47
0.0
 48
0.0
 49
0.0
140
0.0
141
0.0
142
1.0
143
1.0
 70
  1712
 72
     1
 73
     0
 74
     0
  7

 75
     0
147
1.0
148
0.0
149
0.0
100
AcDbLayout
  1
Model
 70
     1
 71
     0
 10
0.0
 20
0.0
 11
279.4
 21
215.9
 12
0.0
 22
0.0
 32
0.0
 14
0.0
 24
0.0
 34
0.0
 15
279.4
 25
215.9
 35
0.0
146
0.0
 13
0.0
 23
0.0
 33
0.0
 16
1.0
 26
0.0
 36
0.0
 17
0.0
 27
1.0
 37
0.0
 76
     0
330
1F
331
29
  0
MLINESTYLE
  5
18
102
{ACAD_REACTORS
330
17
102
}
330
17
100
AcDbMlineStyle
  2
Standard
 70
     0
  3

 62
   256
 51
90.0
 52
90.0
 71
     2
 49
0.5
 62
   256
  6
BYLAYER
 49
-0.5
 62
   256
  6
BYLAYER
  0
ACDBPLACEHOLDER
  5
F
102
{ACAD_REACTORS
330
E
102
}
330
E
  0
SCALE
  5
48
102
{ACAD_REACTORS
330
47
102
}
330
47
100
AcDbScale
 70
     0
300
1:1
140
1.0
141
1.0
290
     1
  0
SCALE
  5
49
102
{ACAD_REACTORS
330
47
102
}
330
47
100
AcDbScale
 70
     0
300
1:2
140
1.0
141
2.0
290
     0
  0
SCALE
  5
4A
102
{ACAD_REACTORS
330
47
102
}
330
47
100
AcDbScale
 70
     0
300
1:4
140
1.0
141
4.0
290
     0
  0
SCALE
  5
4B
102
{ACAD_REACTORS
330
47
102
}
330
47
100
AcDbScale
 70
     0
300
1:5
140
1.0
141
5.0
290
     0
  0
SCALE
  5
4C
102
{ACAD_REACTORS
330
47
102
}
330
47
100
AcDbScale
 70
     0
300
1:8
140
1.0
141
8.0
290
     0
  0
SCALE
  5
4D
102
{ACAD_REACTORS
330
47
102
}
330
47
100
AcDbScale
 70
     0
300
1:10
140
1.0
141
10.0
290
     0
  0
SCALE
  5
4E
102
{ACAD_REACTORS
330
47
102
}
330
47
100
AcDbScale
 70
     0
300
1:16
140
1.0
141
16.0
290
     0
  0
SCALE
  5
4F
102
{ACAD_REACTORS
330
47
102
}
330
47
100
AcDbScale
 70
     0
300
1:20
140
1.0
141
20.0
290
     0
  0
SCALE
  5
50
102
{ACAD_REACTORS
330
47
102
}
330
47
100
AcDbScale
 70
     0
300
1:30
140
1.0
141
30.0
290
     0
  0
SCALE
  5
51
102
{ACAD_REACTORS
330
47
102
}
330
47
100
AcDbScale
 70
     0
300
1:40
140
1.0
141
40.0
290
     0
  0
SCALE
  5
52
102
{ACAD_REACTORS
330
47
102
}
330
47
100
AcDbScale
 70
     0
300
1:50
140
1.0
141
50.0
290
     0
  0
SCALE
  5
53
102
{ACAD_REACTORS
330
47
102
}
330
47
100
AcDbScale
 70
     0
300
1:100
140
1.0
141
100.0
290
     0
  0
SCALE
  5
54
102
{ACAD_REACTORS
330
47
102
}
330
47
100
AcDbScale
 70
     0
300
2:1
140
2.0
141
1.0
290
     0
  0
SCALE
  5
55
102
{ACAD_REACTORS
330
47
102
}
330
47
100
AcDbScale
 70
     0
300
4:1
140
4.0
141
1.0
290
     0
  0
SCALE
  5
56
102
{ACAD_REACTORS
330
47
102
}
330
47
100
AcDbScale
 70
     0
300
8:1
140
8.0
141
1.0
290
     0
  0
SCALE
  5
57
102
{ACAD_REACTORS
330
47
102
}
330
47
100
AcDbScale
 70
     0
300
10:1
140
10.0
141
1.0
290
     0
  0
SCALE
  5
58
102
{ACAD_REACTORS
330
47
102
}
330
47
100
AcDbScale
 70
     0
300
100:1
140
100.0
141
1.0
290
     0
  0
SCALE
  5
59
102
{ACAD_REACTORS
330
47
102
}
330
47
100
AcDbScale
 70
     0
300
1/128" = 1'-0"
140
0.0078125
141
12.0
290
     0
  0
SCALE
  5
5A
102
{ACAD_REACTORS
330
47
102
}
330
47
100
AcDbScale
 70
     0
300
1/64" = 1'-0"
140
0.015625
141
12.0
290
     0
  0
SCALE
  5
5B
102
{ACAD_REACTORS
330
47
102
}
330
47
100
AcDbScale
 70
     0
300
1/32" = 1'-0"
140
0.03125
141
12.0
290
     0
  0
SCALE
  5
5C
102
{ACAD_REACTORS
330
47
102
}
330
47
100
AcDbScale
 70
     0
300
1/16" = 1'-0"
140
0.0625
141
12.0
290
     0
  0
SCALE
  5
5D
102
{ACAD_REACTORS
330
47
102
}
330
47
100
AcDbScale
 70
     0
300
3/32" = 1'-0"
140
0.09375
141
12.0
290
     0
  0
SCALE
  5
5E
102
{ACAD_REACTORS
330
47
102
}
330
47
100
AcDbScale
 70
     0
300
1/8" = 1'-0"
140
0.125
141
12.0
290
     0
  0
SCALE
  5
5F
102
{ACAD_REACTORS
330
47
102
}
330
47
100
AcDbScale
 70
     0
300
3/16" = 1'-0"
140
0.1875
141
12.0
290
     0
  0
SCALE
  5
60
102
{ACAD_REACTORS
330
47
102
}
330
47
100
AcDbScale
 70
     0
300
1/4" = 1'-0"
140
0.25
141
12.0
290
     0
  0
SCALE
  5
61
102
{ACAD_REACTORS
330
47
102
}
330
47
100
AcDbScale
 70
     0
300
3/8" = 1'-0"
140
0.375
141
12.0
290
     0
  0
SCALE
  5
62
102
{ACAD_REACTORS
330
47
102
}
330
47
100
AcDbScale
 70
     0
300
1/2" = 1'-0"
140
0.5
141
12.0
290
     0
  0
SCALE
  5
63
102
{ACAD_REACTORS
330
47
102
}
330
47
100
AcDbScale
 70
     0
300
3/4" = 1'-0"
140
0.75
141
12.0
290
     0
  0
SCALE
  5
64
102
{ACAD_REACTORS
330
47
102
}
330
47
100
AcDbScale
 70
     0
300
1" = 1'-0"
140
1.0
141
12.0
290
     0
  0
SCALE
  5
65
102
{ACAD_REACTORS
330
47
102
}
330
47
100
AcDbScale
 70
     0
300
1-1/2" = 1'-0"
140
1.5
141
12.0
290
     0
  0
SCALE
  5
66
102
{ACAD_REACTORS
330
47
102
}
330
47
100
AcDbScale
 70
     0
300
3" = 1'-0"
140
3.0
141
12.0
290
     0
  0
SCALE
  5
67
102
{ACAD_REACTORS
330
47
102
}
330
47
100
AcDbScale
 70
     0
300
6" = 1'-0"
140
6.0
141
12.0
290
     0
  0
SCALE
  5
68
102
{ACAD_REACTORS
330
47
102
}
330
47
100
AcDbScale
 70
     0
300
1'-0" = 1'-0"
140
12.0
141
12.0
290
     0
  0
ENDSEC
  0
EOF
